  0
SECTION
  2
HEADER
  9
$ACADVER
  1
AC1014
  9
$ACADMAINTVER
 70
     9
  9
$DWGCODEPAGE
  3
ANSI_932
  9
$INSBASE
 10
0.0
 20
0.0
 30
0.0
  9
$EXTMIN
 10
-300.9932792982295
 20
-122.6365608601775
 30
0.0
  9
$EXTMAX
 10
286.7000607017704
 20
102.4376481782942
 30
0.0
  9
$LIMMIN
 10
-148.5
 20
-105.0
  9
$LIMMAX
 10
148.5
 20
105.0
  9
$ORTHOMODE
 70
     0
  9
$REGENMODE
 70
     1
  9
$FILLMODE
 70
     1
  9
$QTEXTMODE
 70
     0
  9
$MIRRTEXT
 70
     1
  9
$DRAGMODE
 70
     2
  9
$LTSCALE
 40
1.0
  9
$OSMODE
 70
    37
  9
$ATTMODE
 70
     1
  9
$TEXTSIZE
 40
0.2
  9
$TRACEWID
 40
0.05
  9
$TEXTSTYLE
  7
STANDARD
  9
$CLAYER
  8
0
  9
$CELTYPE
  6
BYLAYER
  9
$CECOLOR
 62
   256
  9
$CELTSCALE
 40
1.0
  9
$DELOBJ
 70
     1
  9
$DISPSILH
 70
     0
  9
$DIMSCALE
 40
1.0
  9
$DIMASZ
 40
2.5
  9
$DIMEXO
 40
0.0625
  9
$DIMDLI
 40
0.38
  9
$DIMRND
 40
0.0
  9
$DIMDLE
 40
0.0
  9
$DIMEXE
 40
0.18
  9
$DIMTP
 40
0.0
  9
$DIMTM
 40
0.0
  9
$DIMTXT
 40
0.18
  9
$DIMCEN
 40
0.09
  9
$DIMTSZ
 40
0.0
  9
$DIMTOL
 70
     0
  9
$DIMLIM
 70
     0
  9
$DIMTIH
 70
     1
  9
$DIMTOH
 70
     1
  9
$DIMSE1
 70
     0
  9
$DIMSE2
 70
     0
  9
$DIMTAD
 70
     3
  9
$DIMZIN
 70
     0
  9
$DIMBLK
  1

  9
$DIMASO
 70
     1
  9
$DIMSHO
 70
     1
  9
$DIMPOST
  1

  9
$DIMAPOST
  1

  9
$DIMALT
 70
     0
  9
$DIMALTD
 70
     2
  9
$DIMALTF
 40
25.4
  9
$DIMLFAC
 40
1.0
  9
$DIMTOFL
 70
     0
  9
$DIMTVP
 40
0.0
  9
$DIMTIX
 70
     0
  9
$DIMSOXD
 70
     0
  9
$DIMSAH
 70
     0
  9
$DIMBLK1
  1

  9
$DIMBLK2
  1

  9
$DIMSTYLE
  2
STANDARD
  9
$DIMCLRD
 70
     0
  9
$DIMCLRE
 70
     0
  9
$DIMCLRT
 70
     0
  9
$DIMTFAC
 40
1.0
  9
$DIMGAP
 40
0.09
  9
$DIMJUST
 70
     0
  9
$DIMSD1
 70
     0
  9
$DIMSD2
 70
     0
  9
$DIMTOLJ
 70
     1
  9
$DIMTZIN
 70
     0
  9
$DIMALTZ
 70
     0
  9
$DIMALTTZ
 70
     0
  9
$DIMFIT
 70
     3
  9
$DIMUPT
 70
     0
  9
$DIMUNIT
 70
     2
  9
$DIMDEC
 70
     4
  9
$DIMTDEC
 70
     4
  9
$DIMALTU
 70
     2
  9
$DIMALTTD
 70
     2
  9
$DIMTXSTY
  7
STANDARD
  9
$DIMAUNIT
 70
     0
  9
$LUNITS
 70
     2
  9
$LUPREC
 70
     4
  9
$SKETCHINC
 40
0.1
  9
$FILLETRAD
 40
0.5
  9
$AUNITS
 70
     0
  9
$AUPREC
 70
     0
  9
$MENU
  1
.
  9
$ELEVATION
 40
0.0
  9
$PELEVATION
 40
0.0
  9
$THICKNESS
 40
0.0
  9
$LIMCHECK
 70
     0
  9
$CHAMFERA
 40
0.5
  9
$CHAMFERB
 40
0.5
  9
$CHAMFERC
 40
1.0
  9
$CHAMFERD
 40
0.0
  9
$SKPOLY
 70
     0
  9
$TDCREATE
 40
2457961.395392292
  9
$TDUPDATE
 40
2457961.395392303
  9
$TDINDWG
 40
0.0000000116
  9
$TDUSRTIMER
 40
0.0000000116
  9
$USRTIMER
 70
     1
  9
$ANGBASE
 50
0.0
  9
$ANGDIR
 70
     0
  9
$PDMODE
 70
     0
  9
$PDSIZE
 40
1.0
  9
$PLINEWID
 40
0.0
  9
$COORDS
 70
     1
  9
$SPLFRAME
 70
     0
  9
$SPLINETYPE
 70
     6
  9
$SPLINESEGS
 70
     8
  9
$ATTDIA
 70
     0
  9
$ATTREQ
 70
     1
  9
$HANDLING
 70
     1
  9
$HANDSEED
  5
1A7
  9
$SURFTAB1
 70
     6
  9
$SURFTAB2
 70
     6
  9
$SURFTYPE
 70
     6
  9
$SURFU
 70
     6
  9
$SURFV
 70
     6
  9
$UCSNAME
  2

  9
$UCSORG
 10
0.0
 20
0.0
 30
0.0
  9
$UCSXDIR
 10
1.0
 20
0.0
 30
0.0
  9
$UCSYDIR
 10
0.0
 20
1.0
 30
0.0
  9
$PUCSNAME
  2

  9
$PUCSORG
 10
0.0
 20
0.0
 30
0.0
  9
$PUCSXDIR
 10
1.0
 20
0.0
 30
0.0
  9
$PUCSYDIR
 10
0.0
 20
1.0
 30
0.0
  9
$USERI1
 70
     0
  9
$USERI2
 70
     0
  9
$USERI3
 70
     0
  9
$USERI4
 70
     0
  9
$USERI5
 70
     0
  9
$USERR1
 40
0.0
  9
$USERR2
 40
0.0
  9
$USERR3
 40
0.0
  9
$USERR4
 40
0.0
  9
$USERR5
 40
0.0
  9
$WORLDVIEW
 70
     1
  9
$SHADEDGE
 70
     3
  9
$SHADEDIF
 70
    70
  9
$TILEMODE
 70
     1
  9
$MAXACTVP
 70
    64
  9
$PINSBASE
 10
0.0
 20
0.0
 30
0.0
  9
$PLIMCHECK
 70
     0
  9
$PEXTMIN
 10
1.000000000000000E+20
 20
1.000000000000000E+20
 30
1.000000000000000E+20
  9
$PEXTMAX
 10
-1.000000000000000E+20
 20
-1.000000000000000E+20
 30
-1.000000000000000E+20
  9
$PLIMMIN
 10
0.0
 20
0.0
  9
$PLIMMAX
 10
12.0
 20
9.0
  9
$UNITMODE
 70
     0
  9
$VISRETAIN
 70
     0
  9
$PLINEGEN
 70
     1
  9
$PSLTSCALE
 70
     0
  9
$TREEDEPTH
 70
  3020
  9
$PICKSTYLE
 70
     1
  9
$CMLSTYLE
  2
STANDARD
  9
$CMLJUST
 70
     0
  9
$CMLSCALE
 40
1.0
  9
$PROXYGRAPHICS
 70
     0
  9
$MEASUREMENT
 70
     1
  0
ENDSEC
  0
SECTION
  2
CLASSES
  0
CLASS
  1
ACDBDICTIONARYWDFLT
  2
AcDbDictionaryWithDefault
  3
ObjectDBX Classes
 90
        0
280
     0
281
     0
  0
CLASS
  1
XRECORD
  2
AcDbXrecord
  3
AutoCAD 2000
 90
        0
280
     0
281
     0
  0
CLASS
  1
LWPOLYLINE
  2
AcDbPolyline
  3
AutoCAD 2000
 90
        0
280
     0
281
     1
  0
CLASS
  1
HATCH
  2
AcDbHatch
  3
AutoCAD 2000
 90
        0
280
     0
281
     1
  0
CLASS
  1
ACDBPLACEHOLDER
  2
AcDbPlaceHolder
  3
ObjectDBX Classes
 90
        0
280
     0
281
     0
  0
CLASS
  1
LAYOUT
  2
AcDbLayout
  3
ObjectDBX Classes
 90
        0
280
     0
281
     0
  0
ENDSEC
  0
SECTION
  2
TABLES
  0
TABLE
  2
VPORT
  5
8
330
0
100
AcDbSymbolTable
 70
     1
  0
VPORT
  5
29
330
8
100
AcDbSymbolTableRecord
100
AcDbViewportTableRecord
  2
*ACTIVE
 70
     0
 10
0.0
 20
0.0
 11
1.0
 21
1.0
 12
0.0
 22
0.0
 13
0.0
 23
0.0
 14
0.5
 24
0.5
 15
0.5
 25
0.5
 16
0.0
 26
0.0
 36
1.0
 17
-7.146609298229553
 27
8.261824514020304
 37
0.0
 40
80.27399999999999
 41
2.489171283354511
 42
50.0
 43
0.0
 44
0.0
 50
0.0
 51
0.0
 71
     0
 72
  1000
 73
     1
 74
     1
 75
     0
 76
     0
 77
     0
 78
     0
  0
ENDTAB
  0
TABLE
  2
LTYPE
  5
5
330
0
100
AcDbSymbolTable
 70
    28
  0
LTYPE
  5
14
330
5
100
AcDbSymbolTableRecord
100
AcDbLinetypeTableRecord
  2
BYBLOCK
 70
     0
  3

 72
    65
 73
     0
 40
0.0
  0
LTYPE
  5
15
330
5
100
AcDbSymbolTableRecord
100
AcDbLinetypeTableRecord
  2
BYLAYER
 70
     0
  3

 72
    65
 73
     0
 40
0.0
  0
LTYPE
  5
16
330
5
100
AcDbSymbolTableRecord
100
AcDbLinetypeTableRecord
  2
CONTINUOUS
 70
     0
  3
Solid line
 72
    65
 73
     0
 40
0.0
  0
LTYPE
  5
2B
330
5
100
AcDbSymbolTableRecord
100
AcDbLinetypeTableRecord
  2
HIDDENX2
 70
     0
  3
CADPAC LINETYPE
 72
    65
 73
     2
 40
4.525862068965466
 49
3.3943965517241
 74
     0
 49
-1.131465517241367
 74
     0
  0
LTYPE
  5
2C
330
5
100
AcDbSymbolTableRecord
100
AcDbLinetypeTableRecord
  2
HIDDEN
 70
     0
  3
CADPAC LINETYPE
 72
    65
 73
     2
 40
3.3943965517241
 49
2.262931034482733
 74
     0
 49
-1.131465517241367
 74
     0
  0
LTYPE
  5
2D
330
5
100
AcDbSymbolTableRecord
100
AcDbLinetypeTableRecord
  2
HIDDEN2
 70
     0
  3
CADPAC LINETYPE
 72
    65
 73
     2
 40
2.828663793103416
 49
1.69719827586205
 74
     0
 49
-1.131465517241367
 74
     0
  0
LTYPE
  5
2E
330
5
100
AcDbSymbolTableRecord
100
AcDbLinetypeTableRecord
  2
DASHED
 70
     0
  3
CADPAC LINETYPE
 72
    65
 73
     2
 40
3.168103448275815
 49
2.262931034482733
 74
     0
 49
-0.9051724137930819
 74
     0
  0
LTYPE
  5
2F
330
5
100
AcDbSymbolTableRecord
100
AcDbLinetypeTableRecord
  2
DASHED2
 70
     0
  3
CADPAC LINETYPE
 72
    65
 73
     2
 40
2.03663793103442
 49
1.357758620689623
 74
     0
 49
-0.6788793103447972
 74
     0
  0
LTYPE
  5
30
330
5
100
AcDbSymbolTableRecord
100
AcDbLinetypeTableRecord
  2
DASHEDX2
 70
     0
  3
CADPAC LINETYPE
 72
    65
 73
     2
 40
5.431034482758548
 49
4.525862068965466
 74
     0
 49
-0.9051724137930819
 74
     0
  0
LTYPE
  5
31
330
5
100
AcDbSymbolTableRecord
100
AcDbLinetypeTableRecord
  2
DOTX2
 70
     0
  3
CADPAC LINETYPE
 72
    65
 73
     2
 40
1.980064655172384
 49
0.0
 74
     0
 49
-1.980064655172384
 74
     0
  0
LTYPE
  5
32
330
5
100
AcDbSymbolTableRecord
100
AcDbLinetypeTableRecord
  2
DOT
 70
     0
  3
CADPAC LINETYPE
 72
    65
 73
     2
 40
1.584051724137908
 49
0.0
 74
     0
 49
-1.584051724137908
 74
     0
  0
LTYPE
  5
33
330
5
100
AcDbSymbolTableRecord
100
AcDbLinetypeTableRecord
  2
DOT2
 70
     0
  3
CADPAC LINETYPE
 72
    65
 73
     2
 40
1.188038793103431
 49
0.0
 74
     0
 49
-1.188038793103431
 74
     0
  0
LTYPE
  5
34
330
5
100
AcDbSymbolTableRecord
100
AcDbLinetypeTableRecord
  2
CENTERX2
 70
     0
  3
CADPAC LINETYPE
 72
    65
 73
     4
 40
6.788793103448199
 49
2.828663793103416
 74
     0
 49
-1.414331896551708
 74
     0
 49
1.131465517241367
 74
     0
 49
-1.414331896551708
 74
     0
  0
LTYPE
  5
35
330
5
100
AcDbSymbolTableRecord
100
AcDbLinetypeTableRecord
  2
CENTER
 70
     0
  3
CADPAC LINETYPE
 72
    65
 73
     4
 40
5.204741379310287
 49
2.262931034482733
 74
     0
 49
-1.131465517241367
 74
     0
 49
0.67887931034482
 74
     0
 49
-1.131465517241367
 74
     0
  0
LTYPE
  5
36
330
5
100
AcDbSymbolTableRecord
100
AcDbLinetypeTableRecord
  2
CENTER2
 70
     0
  3
CADPAC LINETYPE
 72
    65
 73
     4
 40
3.620689655172373
 49
1.69719827586205
 74
     0
 49
-0.8485991379310249
 74
     0
 49
0.2262931034482733
 74
     0
 49
-0.8485991379310249
 74
     0
  0
LTYPE
  5
37
330
5
100
AcDbSymbolTableRecord
100
AcDbLinetypeTableRecord
  2
DASHDOTX2
 70
     0
  3
CADPAC LINETYPE
 72
    65
 73
     4
 40
10.86206896551718
 49
5.431034482758605
 74
     0
 49
-1.810344827586192
 74
     0
 49
1.810344827586192
 74
     0
 49
-1.810344827586192
 74
     0
  0
LTYPE
  5
38
330
5
100
AcDbSymbolTableRecord
100
AcDbLinetypeTableRecord
  2
DASHDOT
 70
     0
  3
CADPAC LINETYPE
 72
    65
 73
     4
 40
5.43103448275852
 49
2.715517241379274
 74
     0
 49
-0.9051724137930819
 74
     0
 49
0.9051724137930819
 74
     0
 49
-0.9051724137930819
 74
     0
  0
LTYPE
  5
39
330
5
100
AcDbSymbolTableRecord
100
AcDbLinetypeTableRecord
  2
DASHDOT2
 70
     0
  3
CADPAC LINETYPE
 72
    65
 73
     4
 40
3.484913793103387
 49
2.036637931034456
 74
     0
 49
-0.6788793103448114
 74
     0
 49
0.0905172413793082
 74
     0
 49
-0.6788793103448114
 74
     0
  0
LTYPE
  5
3A
330
5
100
AcDbSymbolTableRecord
100
AcDbLinetypeTableRecord
  2
DIVIDEX2
 70
     0
  3
CADPAC LINETYPE
 72
    65
 73
     6
 40
14.48275862068957
 49
5.431034482758605
 74
     0
 49
-1.810344827586192
 74
     0
 49
1.810344827586192
 74
     0
 49
-1.810344827586192
 74
     0
 49
1.810344827586192
 74
     0
 49
-1.810344827586192
 74
     0
  0
LTYPE
  5
3B
330
5
100
AcDbSymbolTableRecord
100
AcDbLinetypeTableRecord
  2
DIVIDE
 70
     0
  3
CADPAC LINETYPE
 72
    65
 73
     6
 40
7.241379310344684
 49
2.715517241379274
 74
     0
 49
-0.9051724137930819
 74
     0
 49
0.9051724137930819
 74
     0
 49
-0.9051724137930819
 74
     0
 49
0.9051724137930819
 74
     0
 49
-0.9051724137930819
 74
     0
  0
LTYPE
  5
3C
330
5
100
AcDbSymbolTableRecord
100
AcDbLinetypeTableRecord
  2
DIVIDE2
 70
     0
  3
CADPAC LINETYPE
 72
    65
 73
     6
 40
5.431034482758513
 49
2.036637931034456
 74
     0
 49
-0.6788793103448114
 74
     0
 49
0.6788793103448114
 74
     0
 49
-0.6788793103448114
 74
     0
 49
0.6788793103448114
 74
     0
 49
-0.6788793103448114
 74
     0
  0
LTYPE
  5
3D
330
5
100
AcDbSymbolTableRecord
100
AcDbLinetypeTableRecord
  2
BORDERX2
 70
     0
  3
CADPAC LINETYPE
 72
    65
 73
     6
 40
9.900323275861958
 49
2.828663793103416
 74
     0
 49
-1.414331896551708
 74
     0
 49
2.828663793103416
 74
     0
 49
-1.414331896551708
 74
     0
 49
0.0
 74
     0
 49
-1.414331896551708
 74
     0
  0
LTYPE
  5
3E
330
5
100
AcDbSymbolTableRecord
100
AcDbLinetypeTableRecord
  2
BORDER
 70
     0
  3
CADPAC LINETYPE
 72
    65
 73
     6
 40
7.920258620689566
 49
2.262931034482733
 74
     0
 49
-1.131465517241367
 74
     0
 49
2.262931034482733
 74
     0
 49
-1.131465517241367
 74
     0
 49
0.0
 74
     0
 49
-1.131465517241367
 74
     0
  0
LTYPE
  5
3F
330
5
100
AcDbSymbolTableRecord
100
AcDbLinetypeTableRecord
  2
BORDER2
 70
     0
  3
CADPAC LINETYPE
 72
    65
 73
     6
 40
5.883620689655032
 49
1.810344827586192
 74
     0
 49
-1.131465517241338
 74
     0
 49
0.6788793103447972
 74
     0
 49
-1.131465517241338
 74
     0
 49
0.0
 74
     0
 49
-1.131465517241367
 74
     0
  0
LTYPE
  5
40
330
5
100
AcDbSymbolTableRecord
100
AcDbLinetypeTableRecord
  2
PHANTOMX2
 70
     0
  3
CADPAC LINETYPE
 72
    65
 73
     6
 40
8.485991379310249
 49
2.828663793103416
 74
     0
 49
-1.131465517241367
 74
     0
 49
1.131465517241367
 74
     0
 49
-1.131465517241367
 74
     0
 49
1.131465517241367
 74
     0
 49
-1.131465517241367
 74
     0
  0
LTYPE
  5
41
330
5
100
AcDbSymbolTableRecord
100
AcDbLinetypeTableRecord
  2
PHANTOM
 70
     0
  3
CADPAC LINETYPE
 72
    65
 73
     6
 40
7.015086206896473
 49
2.262931034482733
 74
     0
 49
-1.131465517241367
 74
     0
 49
0.67887931034482
 74
     0
 49
-1.131465517241367
 74
     0
 49
0.67887931034482
 74
     0
 49
-1.131465517241367
 74
     0
  0
LTYPE
  5
42
330
5
100
AcDbSymbolTableRecord
100
AcDbLinetypeTableRecord
  2
PHANTOM2
 70
     0
  3
CADPAC LINETYPE
 72
    65
 73
     6
 40
5.996767241379242
 49
1.69719827586205
 74
     0
 49
-1.131465517241367
 74
     0
 49
0.4525862068965467
 74
     0
 49
-1.131465517241367
 74
     0
 49
0.4525862068965467
 74
     0
 49
-1.131465517241367
 74
     0
  0
LTYPE
  5
43
330
5
100
AcDbSymbolTableRecord
100
AcDbLinetypeTableRecord
  2
ACAD_ISO06W100
 70
     0
  3
CADPAC LINETYPE
 72
    65
 73
     8
 40
11.99353448275835
 49
5.431034482758605
 74
     0
 49
-1.131465517241338
 74
     0
 49
0.6788793103447972
 74
     0
 49
-1.131465517241338
 74
     0
 49
0.6788793103447972
 74
     0
 49
-1.131465517241338
 74
     0
 49
0.6788793103447972
 74
     0
 49
-1.131465517241338
 74
     0
  0
LTYPE
  5
44
330
5
100
AcDbSymbolTableRecord
100
AcDbLinetypeTableRecord
  2
ACAD_ISO13W100
 70
     0
  3
CADPAC LINETYPE
 72
    65
 73
     8
 40
9.051724137930933
 49
2.262931034482733
 74
     0
 49
-1.131465517241367
 74
     0
 49
2.262931034482733
 74
     0
 49
-1.131465517241367
 74
     0
 49
0.0
 74
     0
 49
-1.131465517241367
 74
     0
 49
0.0
 74
     0
 49
-1.131465517241367
 74
     0
  0
LTYPE
  5
45
330
5
100
AcDbSymbolTableRecord
100
AcDbLinetypeTableRecord
  2
ACAD_ISO14W100
 70
     0
  3
CADPAC LINETYPE
 72
    65
 73
     8
 40
6.788793103448199
 49
2.262931034482733
 74
     0
 49
-1.131465517241367
 74
     0
 49
0.0
 74
     0
 49
-1.131465517241367
 74
     0
 49
0.0
 74
     0
 49
-1.131465517241367
 74
     0
 49
0.0
 74
     0
 49
-1.131465517241367
 74
     0
  0
ENDTAB
  0
TABLE
  2
LAYER
  5
2
330
0
100
AcDbSymbolTable
 70
     3
  0
LAYER
  5
10
330
2
100
AcDbSymbolTableRecord
100
AcDbLayerTableRecord
  2
0
 70
     0
 62
     7
  6
CONTINUOUS
  0
LAYER
  5
46
330
2
100
AcDbSymbolTableRecord
100
AcDbLayerTableRecord
  2
LAYER0001
 70
     0
 62
     7
  6
CONTINUOUS
  0
LAYER
  5
47
330
2
100
AcDbSymbolTableRecord
100
AcDbLayerTableRecord
  2
LAYER0003
 70
     0
 62
     7
  6
CONTINUOUS
  0
ENDTAB
  0
TABLE
  2
STYLE
  5
3
330
0
100
AcDbSymbolTable
 70
     2
  0
STYLE
  5
11
330
3
100
AcDbSymbolTableRecord
100
AcDbTextStyleTableRecord
  2
STANDARD
 70
     0
 40
0.0
 41
1.0
 50
0.0
 71
     0
 42
0.2
  3
txt
  4

  0
STYLE
  5
9C
330
3
100
AcDbSymbolTableRecord
100
AcDbTextStyleTableRecord
  2
FDASTYLE0
 70
     0
 40
4.0
 41
0.8
 50
0.0
 71
     0
 42
0.2
  3
txt.shx
  4
bigfont
  0
ENDTAB
  0
TABLE
  2
VIEW
  5
6
330
0
100
AcDbSymbolTable
 70
     0
  0
ENDTAB
  0
TABLE
  2
UCS
  5
7
330
0
100
AcDbSymbolTable
 70
     0
  0
ENDTAB
  0
TABLE
  2
APPID
  5
9
330
0
100
AcDbSymbolTable
 70
     2
  0
APPID
  5
12
330
9
100
AcDbSymbolTableRecord
100
AcDbRegAppTableRecord
  2
ACAD
 70
     0
  0
APPID
  5
2A
330
9
100
AcDbSymbolTableRecord
100
AcDbRegAppTableRecord
  2
DAFUSIONOUT
 70
     0
  0
ENDTAB
  0
TABLE
  2
DIMSTYLE
  5
A
330
0
100
AcDbSymbolTable
 70
     1
  0
DIMSTYLE
105
27
330
A
100
AcDbSymbolTableRecord
100
AcDbDimStyleTableRecord
  2
STANDARD
 70
     0
  3

  4

  5

  6

  7

 40
1.0
 41
0.18
 42
0.0625
 43
0.38
 44
0.18
 45
0.0
 46
0.0
 47
0.0
 48
0.0
140
0.18
141
0.09
142
0.0
143
25.4
144
1.0
145
0.0
146
1.0
147
0.09
 71
     0
 72
     0
 73
     1
 74
     1
 75
     0
 76
     0
 77
     0
 78
     0
170
     0
171
     2
172
     0
173
     0
174
     0
175
     0
176
     0
177
     0
178
     0
270
     2
271
     4
272
     4
273
     2
274
     2
340
11
275
     0
280
     0
281
     0
282
     0
283
     1
284
     0
285
     0
286
     0
287
     3
288
     0
  0
ENDTAB
  0
TABLE
  2
BLOCK_RECORD
  5
1
330
0
100
AcDbSymbolTable
 70
    19
  0
BLOCK_RECORD
  5
1F
330
1
100
AcDbSymbolTableRecord
100
AcDbBlockTableRecord
  2
*MODEL_SPACE
  0
BLOCK_RECORD
  5
1B
330
1
100
AcDbSymbolTableRecord
100
AcDbBlockTableRecord
  2
*PAPER_SPACE
  0
BLOCK_RECORD
  5
49
330
1
100
AcDbSymbolTableRecord
100
AcDbBlockTableRecord
  2
DC_GROUP_1
  0
BLOCK_RECORD
  5
4C
330
1
100
AcDbSymbolTableRecord
100
AcDbBlockTableRecord
  2
DC_GROUP_2
  0
BLOCK_RECORD
  5
4F
330
1
100
AcDbSymbolTableRecord
100
AcDbBlockTableRecord
  2
DC_GROUP_3
  0
BLOCK_RECORD
  5
52
330
1
100
AcDbSymbolTableRecord
100
AcDbBlockTableRecord
  2
DA_IMAGEDIMGROUP_1
  0
BLOCK_RECORD
  5
55
330
1
100
AcDbSymbolTableRecord
100
AcDbBlockTableRecord
  2
DA_IMAGEDIMGROUP_2
  0
BLOCK_RECORD
  5
58
330
1
100
AcDbSymbolTableRecord
100
AcDbBlockTableRecord
  2
DA_IMAGEDIMGROUP_3
  0
BLOCK_RECORD
  5
5B
330
1
100
AcDbSymbolTableRecord
100
AcDbBlockTableRecord
  2
DA_IMAGEDIMGROUP_4
  0
BLOCK_RECORD
  5
5E
330
1
100
AcDbSymbolTableRecord
100
AcDbBlockTableRecord
  2
DA_IMAGEDIMGROUP_5
  0
BLOCK_RECORD
  5
61
330
1
100
AcDbSymbolTableRecord
100
AcDbBlockTableRecord
  2
DA_IMAGEDIMGROUP_6
  0
BLOCK_RECORD
  5
64
330
1
100
AcDbSymbolTableRecord
100
AcDbBlockTableRecord
  2
DC_GROUP_4
  0
BLOCK_RECORD
  5
67
330
1
100
AcDbSymbolTableRecord
100
AcDbBlockTableRecord
  2
DA_IMAGEDIMGROUP_7
  0
BLOCK_RECORD
  5
6A
330
1
100
AcDbSymbolTableRecord
100
AcDbBlockTableRecord
  2
DA_IMAGEDIMGROUP_8
  0
BLOCK_RECORD
  5
6D
330
1
100
AcDbSymbolTableRecord
100
AcDbBlockTableRecord
  2
DA_IMAGEDIMGROUP_9
  0
BLOCK_RECORD
  5
70
330
1
100
AcDbSymbolTableRecord
100
AcDbBlockTableRecord
  2
DA_IMAGEDIMGROUP_10
  0
BLOCK_RECORD
  5
73
330
1
100
AcDbSymbolTableRecord
100
AcDbBlockTableRecord
  2
DA_IMAGEDIMGROUP_11
  0
BLOCK_RECORD
  5
76
330
1
100
AcDbSymbolTableRecord
100
AcDbBlockTableRecord
  2
DA_IMAGEDIMGROUP_12
  0
BLOCK_RECORD
  5
79
330
1
100
AcDbSymbolTableRecord
100
AcDbBlockTableRecord
  2
DA_IMAGEDIMGROUP_13
  0
BLOCK_RECORD
  5
94
330
1
100
AcDbSymbolTableRecord
100
AcDbBlockTableRecord
  2
_OPEN30
  0
ENDTAB
  0
ENDSEC
  0
SECTION
  2
BLOCKS
  0
BLOCK
  5
20
330
1F
100
AcDbEntity
  8
0
100
AcDbBlockBegin
  2
*MODEL_SPACE
 70
     0
 71
     0
 10
0.0
 20
0.0
 30
0.0
  3
*MODEL_SPACE
  1

  0
ENDBLK
  5
21
330
1F
100
AcDbEntity
  8
0
100
AcDbBlockEnd
  0
BLOCK
  5
1C
330
1B
100
AcDbEntity
 67
     1
  8
0
100
AcDbBlockBegin
  2
*PAPER_SPACE
 70
     0
 71
     0
 10
0.0
 20
0.0
 30
0.0
  3
*PAPER_SPACE
  1

  0
ENDBLK
  5
1D
330
1B
100
AcDbEntity
 67
     1
  8
0
100
AcDbBlockEnd
  0
BLOCK
  5
4A
330
49
100
AcDbEntity
  8
0
100
AcDbBlockBegin
  2
DC_GROUP_1
 70
     0
 71
     0
 10
0.0
 20
0.0
 30
0.0
  3
DC_GROUP_1
  1

  0
LINE
  5
7C
330
49
100
AcDbEntity
  8
0
  6
CONTINUOUS
 62
     3
100
AcDbLine
 10
-70.96277195439062
 20
0.6875385199757105
 30
0.0
 11
-73.67391577542774
 21
-0.0389102774358179
 31
0.0
  0
LINE
  5
7D
330
49
100
AcDbEntity
  8
0
  6
CONTINUOUS
 62
     3
100
AcDbLine
 10
-70.96277195439062
 20
7.136110508064924
 30
0.0
 11
-73.67391577542774
 21
7.862559305476452
 31
0.0
  0
ARC
  5
7E
330
49
100
AcDbEntity
  8
0
  6
CONTINUOUS
 62
     3
100
AcDbCircle
 10
-73.57038815738675
 20
-0.4252806079514429
 30
0.0
 40
0.4
100
AcDbArc
 50
105.0
 51
221.0818985431665
  0
ARC
  5
7F
330
49
100
AcDbEntity
  8
0
  6
CONTINUOUS
 62
     3
100
AcDbCircle
 10
-68.59549929822954
 20
3.911824514020317
 30
0.0
 40
7.0
100
AcDbArc
 50
221.0818985431665
 51
498.9181014568334
  0
ARC
  5
80
330
49
100
AcDbEntity
  8
0
  6
CONTINUOUS
 62
     3
100
AcDbCircle
 10
-73.57038815738675
 20
8.248929635992077
 30
0.0
 40
0.4
100
AcDbArc
 50
138.9181014568335
 51
255.0
  0
LINE
  5
81
330
49
100
AcDbEntity
  8
0
  6
CONTINUOUS
 62
     3
100
AcDbLine
 10
-68.59549929822954
 20
-0.0881754859796828
 30
0.0
 11
-68.59549929822954
 21
-1.072149803730525
 31
0.0
  0
LINE
  5
82
330
49
100
AcDbEntity
  8
0
  6
CONTINUOUS
 62
     3
100
AcDbLine
 10
-68.59549929822954
 20
7.911824514020317
 30
0.0
 11
-68.59549929822954
 21
8.89579883177116
 31
0.0
  0
ARC
  5
83
330
49
100
AcDbEntity
  8
0
  6
CONTINUOUS
 62
     3
100
AcDbCircle
 10
-68.19549929822954
 20
-1.072149803730525
 30
0.0
 40
0.4
100
AcDbArc
 50
180.0
 51
274.5885657357858
  0
ARC
  5
84
330
49
100
AcDbEntity
  8
0
  6
CONTINUOUS
 62
     3
100
AcDbCircle
 10
-68.19549929822954
 20
8.89579883177116
 30
0.0
 40
0.4
100
AcDbArc
 50
85.41143426421417
 51
180.0
  0
ARC
  5
85
330
49
100
AcDbEntity
  8
0
  6
CONTINUOUS
 62
     3
100
AcDbCircle
 10
-68.59549929822954
 20
3.911824514020317
 30
0.0
 40
5.4
100
AcDbArc
 50
274.5885657357858
 51
340.7239719969615
  0
ARC
  5
86
330
49
100
AcDbEntity
  8
0
  6
CONTINUOUS
 62
     3
100
AcDbCircle
 10
-68.59549929822954
 20
3.911824514020317
 30
0.0
 40
5.4
100
AcDbArc
 50
19.27602800303852
 51
85.41143426421417
  0
ARC
  5
87
330
49
100
AcDbEntity
  8
0
  6
CONTINUOUS
 62
     3
100
AcDbCircle
 10
-63.87580353332675
 20
2.261227080737903
 30
0.0
 40
0.4
100
AcDbArc
 50
340.7239719969615
 51
435.3125377327473
  0
ARC
  5
88
330
49
100
AcDbEntity
  8
0
  6
CONTINUOUS
 62
     3
100
AcDbCircle
 10
-63.87580353332675
 20
5.562421947302731
 30
0.0
 40
0.4
100
AcDbArc
 50
284.6874622672527
 51
379.2760280030385
  0
LINE
  5
89
330
49
100
AcDbEntity
  8
0
  6
CONTINUOUS
 62
     3
100
AcDbLine
 10
-64.7262062657198
 20
2.897639408346102
 30
0.0
 11
-63.77438502275932
 21
2.648156383988884
 31
0.0
  0
LINE
  5
8A
330
49
100
AcDbEntity
  8
0
  6
CONTINUOUS
 62
     3
100
AcDbLine
 10
-64.7262062657198
 20
4.926009619694533
 30
0.0
 11
-63.77438502275932
 21
5.175492644051751
 31
0.0
  0
ENDBLK
  5
4B
330
49
100
AcDbEntity
  8
0
100
AcDbBlockEnd
  0
BLOCK
  5
4D
330
4C
100
AcDbEntity
  8
0
100
AcDbBlockBegin
  2
DC_GROUP_2
 70
     0
 71
     0
 10
0.0
 20
0.0
 30
0.0
  3
DC_GROUP_2
  1

  0
CIRCLE
  5
8B
330
4C
100
AcDbEntity
  8
0
  6
CONTINUOUS
 62
     3
100
AcDbCircle
 10
-57.59549929822956
 20
22.41182451402032
 30
0.0
 40
2.8
  0
LINE
  5
8C
330
4C
100
AcDbEntity
  8
0
  6
CONTINUOUS
 62
     3
100
AcDbLine
 10
-56.53483912644974
 20
23.47248468580014
 30
0.0
 11
-58.65615947000937
 21
21.35116434224051
 31
0.0
  0
LINE
  5
8D
330
4C
100
AcDbEntity
  8
0
  6
CONTINUOUS
 62
     3
100
AcDbLine
 10
-58.65615947000937
 20
23.47248468580014
 30
0.0
 11
-56.53483912644974
 21
21.35116434224051
 31
0.0
  0
ENDBLK
  5
4E
330
4C
100
AcDbEntity
  8
0
100
AcDbBlockEnd
  0
BLOCK
  5
50
330
4F
100
AcDbEntity
  8
0
100
AcDbBlockBegin
  2
DC_GROUP_3
 70
     0
 71
     0
 10
0.0
 20
0.0
 30
0.0
  3
DC_GROUP_3
  1

  0
CIRCLE
  5
8E
330
4F
100
AcDbEntity
  8
0
  6
CONTINUOUS
 62
     3
100
AcDbCircle
 10
-79.59549929822957
 20
-14.58817548597968
 30
0.0
 40
2.8
  0
LINE
  5
8F
330
4F
100
AcDbEntity
  8
0
  6
CONTINUOUS
 62
     3
100
AcDbLine
 10
-78.53483912644974
 20
-13.52751531419985
 30
0.0
 11
-80.65615947000937
 21
-15.6488356577595
 31
0.0
  0
LINE
  5
90
330
4F
100
AcDbEntity
  8
0
  6
CONTINUOUS
 62
     3
100
AcDbLine
 10
-80.65615947000937
 20
-13.52751531419985
 30
0.0
 11
-78.53483912644974
 21
-15.6488356577595
 31
0.0
  0
ENDBLK
  5
51
330
4F
100
AcDbEntity
  8
0
100
AcDbBlockEnd
  0
BLOCK
  5
53
330
52
100
AcDbEntity
  8
0
100
AcDbBlockBegin
  2
DA_IMAGEDIMGROUP_1
 70
     0
 71
     0
 10
0.0
 20
0.0
 30
0.0
  3
DA_IMAGEDIMGROUP_1
  1

  0
LINE
  5
91
330
52
100
AcDbEntity
  8
0
  6
CONTINUOUS
 62
     9
100
AcDbLine
 10
-7.095499298229573
 20
7.91182451402031
 30
0.0
 11
-7.095499298229573
 21
34.41182451402031
 31
0.0
  0
LINE
  5
92
330
52
100
AcDbEntity
  8
0
  6
CONTINUOUS
 62
     9
100
AcDbLine
 10
4.904500701770427
 20
8.91182451402031
 30
0.0
 11
4.904500701770427
 21
34.41182451402031
 31
0.0
  0
LINE
  5
93
330
52
100
AcDbEntity
  8
0
  6
CONTINUOUS
 62
     9
100
AcDbLine
 10
-7.095499298229573
 20
33.41182451402031
 30
0.0
 11
4.904500701770427
 21
33.41182451402031
 31
0.0
  0
INSERT
  5
9A
330
52
100
AcDbEntity
  8
0
 62
     9
100
AcDbBlockReference
  2
_OPEN30
 10
-7.095499298229573
 20
33.41182451402031
 30
0.0
 41
3.000002787824364
 42
2.999989273978464
 50
180.0
  0
INSERT
  5
9B
330
52
100
AcDbEntity
  8
0
 62
     9
100
AcDbBlockReference
  2
_OPEN30
 10
4.904500701770427
 20
33.41182451402031
 30
0.0
 41
3.000002787824364
 42
2.999989273978464
 50
360.0
  0
TEXT
  5
9D
330
52
100
AcDbEntity
  8
0
 62
     7
100
AcDbText
 10
-4.295499298229573
 20
34.41182451402031
 30
0.0
 40
4.0
  1
12
 41
0.8
  7
FDASTYLE0
 72
     5
 11
2.104500701770427
 21
34.41182451402031
 31
0.0
100
AcDbText
  0
ENDBLK
  5
54
330
52
100
AcDbEntity
  8
0
100
AcDbBlockEnd
  0
BLOCK
  5
56
330
55
100
AcDbEntity
  8
0
100
AcDbBlockBegin
  2
DA_IMAGEDIMGROUP_2
 70
     0
 71
     0
 10
0.0
 20
0.0
 30
0.0
  3
DA_IMAGEDIMGROUP_2
  1

  0
LINE
  5
9E
330
55
100
AcDbEntity
  8
0
  6
CONTINUOUS
 62
     9
100
AcDbLine
 10
-7.095499298229573
 20
7.91182451402031
 30
0.0
 11
-7.095499298229573
 21
42.41182451402031
 31
0.0
  0
LINE
  5
9F
330
55
100
AcDbEntity
  8
0
  6
CONTINUOUS
 62
     9
100
AcDbLine
 10
9.904500701770427
 20
12.73894320720902
 30
0.0
 11
9.904500701770427
 21
42.41182451402031
 31
0.0
  0
LINE
  5
A0
330
55
100
AcDbEntity
  8
0
  6
CONTINUOUS
 62
     9
100
AcDbLine
 10
22.30450070177045
 20
25.91182451402031
 30
0.0
 11
22.30450070177045
 21
42.41182451402031
 31
0.0
  0
LINE
  5
A1
330
55
100
AcDbEntity
  8
0
  6
CONTINUOUS
 62
     9
100
AcDbLine
 10
61.70450070177044
 20
26.21182451402032
 30
0.0
 11
61.70450070177044
 21
42.41182451402031
 31
0.0
  0
LINE
  5
A2
330
55
100
AcDbEntity
  8
0
  6
CONTINUOUS
 62
     9
100
AcDbLine
 10
-7.095499298229573
 20
41.41182451402031
 30
0.0
 11
9.904500701770427
 21
41.41182451402031
 31
0.0
  0
INSERT
  5
A3
330
55
100
AcDbEntity
  8
0
 62
     9
100
AcDbBlockReference
  2
_OPEN30
 10
-7.095499298229573
 20
41.41182451402031
 30
0.0
 41
3.000002787824364
 42
2.999989273978464
 50
180.0
  0
INSERT
  5
A4
330
55
100
AcDbEntity
  8
0
 62
     9
100
AcDbBlockReference
  2
_OPEN30
 10
9.904500701770427
 20
41.41182451402031
 30
0.0
 41
3.000002787824364
 42
2.999989273978464
 50
360.0
  0
LINE
  5
A5
330
55
100
AcDbEntity
  8
0
  6
CONTINUOUS
 62
     9
100
AcDbLine
 10
9.904500701770427
 20
41.41182451402031
 30
0.0
 11
22.30450070177045
 21
41.41182451402031
 31
0.0
  0
INSERT
  5
A6
330
55
100
AcDbEntity
  8
0
 62
     9
100
AcDbBlockReference
  2
_OPEN30
 10
9.904500701770427
 20
41.41182451402031
 30
0.0
 41
3.000002787824364
 42
2.999989273978464
 50
180.0
  0
INSERT
  5
A7
330
55
100
AcDbEntity
  8
0
 62
     9
100
AcDbBlockReference
  2
_OPEN30
 10
22.30450070177045
 20
41.41182451402031
 30
0.0
 41
3.000002787824364
 42
2.999989273978464
 50
360.0
  0
LINE
  5
A8
330
55
100
AcDbEntity
  8
0
  6
CONTINUOUS
 62
     9
100
AcDbLine
 10
22.30450070177045
 20
41.41182451402031
 30
0.0
 11
61.70450070177044
 21
41.41182451402031
 31
0.0
  0
INSERT
  5
A9
330
55
100
AcDbEntity
  8
0
 62
     9
100
AcDbBlockReference
  2
_OPEN30
 10
22.30450070177045
 20
41.41182451402031
 30
0.0
 41
3.000002787824364
 42
2.999989273978464
 50
180.0
  0
INSERT
  5
AA
330
55
100
AcDbEntity
  8
0
 62
     9
100
AcDbBlockReference
  2
_OPEN30
 10
61.70450070177044
 20
41.41182451402031
 30
0.0
 41
3.000002787824364
 42
2.999989273978464
 50
360.0
  0
TEXT
  5
AB
330
55
100
AcDbEntity
  8
0
 62
     7
100
AcDbText
 10
-1.795499298229573
 20
42.41182451402031
 30
0.0
 40
4.0
  1
17
 41
0.8
  7
FDASTYLE0
 72
     5
 11
4.604500701770427
 21
42.41182451402031
 31
0.0
100
AcDbText
  0
TEXT
  5
AC
330
55
100
AcDbEntity
  8
0
 62
     7
100
AcDbText
 10
9.704500701770437
 20
42.41182451402031
 30
0.0
 40
4.0
  1
12.4
 41
0.8000000000000002
  7
FDASTYLE0
 72
     5
 11
22.50450070177044
 21
42.41182451402031
 31
0.0
100
AcDbText
  0
TEXT
  5
AD
330
55
100
AcDbEntity
  8
0
 62
     7
100
AcDbText
 10
35.60450070177044
 20
42.41182451402031
 30
0.0
 40
4.0
  1
39.4
 41
0.7999999999999998
  7
FDASTYLE0
 72
     5
 11
48.40450070177044
 21
42.41182451402031
 31
0.0
100
AcDbText
  0
ENDBLK
  5
57
330
55
100
AcDbEntity
  8
0
100
AcDbBlockEnd
  0
BLOCK
  5
59
330
58
100
AcDbEntity
  8
0
100
AcDbBlockBegin
  2
DA_IMAGEDIMGROUP_3
 70
     0
 71
     0
 10
0.0
 20
0.0
 30
0.0
  3
DA_IMAGEDIMGROUP_3
  1

  0
LINE
  5
AE
330
58
100
AcDbEntity
  8
0
  6
CONTINUOUS
 62
     9
100
AcDbLine
 10
59.70450070177044
 20
19.91182451402028
 30
0.0
 11
59.70450070177044
 21
34.41182451402031
 31
0.0
  0
LINE
  5
AF
330
58
100
AcDbEntity
  8
0
  6
CONTINUOUS
 62
     9
100
AcDbLine
 10
61.70450070177044
 20
26.21182451402032
 30
0.0
 11
61.70450070177044
 21
34.41182451402031
 31
0.0
  0
LINE
  5
B0
330
58
100
AcDbEntity
  8
0
  6
CONTINUOUS
 62
     9
100
AcDbLine
 10
59.70450070177044
 20
33.41182451402031
 30
0.0
 11
61.70450070177044
 21
33.41182451402031
 31
0.0
  0
LINE
  5
B1
330
58
100
AcDbEntity
  8
0
  6
CONTINUOUS
 62
     9
100
AcDbLine
 10
76.20228070177043
 20
33.41182451402031
 30
0.0
 11
61.70450070177044
 21
33.41182451402031
 31
0.0
  0
INSERT
  5
B2
330
58
100
AcDbEntity
  8
0
 62
     9
100
AcDbBlockReference
  2
_OPEN30
 10
61.70450070177044
 20
33.41182451402031
 30
0.0
 41
3.000002787824364
 42
2.999989273978464
 50
180.0
  0
LINE
  5
B3
330
58
100
AcDbEntity
  8
0
  6
CONTINUOUS
 62
     9
100
AcDbLine
 10
54.70450070177044
 20
33.41182451402031
 30
0.0
 11
59.70450070177044
 21
33.41182451402031
 31
0.0
  0
INSERT
  5
B4
330
58
100
AcDbEntity
  8
0
 62
     9
100
AcDbBlockReference
  2
_OPEN30
 10
59.70450070177044
 20
33.41182451402031
 30
0.0
 41
3.000002787824364
 42
2.999989273978464
 50
360.0
  0
TEXT
  5
B5
330
58
100
AcDbEntity
  8
0
 62
     7
100
AcDbText
 10
65.60228070177044
 20
34.41182451402031
 30
0.0
 40
4.0
  1
(2)
 41
0.7999999999999995
  7
FDASTYLE0
 72
     5
 11
75.20228070177043
 21
34.41182451402031
 31
0.0
100
AcDbText
  0
ENDBLK
  5
5A
330
58
100
AcDbEntity
  8
0
100
AcDbBlockEnd
  0
BLOCK
  5
5C
330
5B
100
AcDbEntity
  8
0
100
AcDbBlockBegin
  2
DA_IMAGEDIMGROUP_4
 70
     0
 71
     0
 10
0.0
 20
0.0
 30
0.0
  3
DA_IMAGEDIMGROUP_4
  1

  0
LINE
  5
B6
330
5B
100
AcDbEntity
  8
0
  6
CONTINUOUS
 62
     9
100
AcDbLine
 10
19.3045007017712
 20
-4.588175485979718
 30
0.0
 11
-38.09549929822957
 21
-4.588175485979718
 31
0.0
  0
LINE
  5
B7
330
5B
100
AcDbEntity
  8
0
  6
CONTINUOUS
 62
     9
100
AcDbLine
 10
19.30450070176959
 20
12.41182451402028
 30
0.0
 11
-38.09549929822957
 21
12.41182451402028
 31
0.0
  0
LINE
  5
B8
330
5B
100
AcDbEntity
  8
0
  6
CONTINUOUS
 62
     9
100
AcDbLine
 10
-37.09549929822957
 20
-4.588175485979718
 30
0.0
 11
-37.09549929822957
 21
12.41182451402028
 31
0.0
  0
INSERT
  5
B9
330
5B
100
AcDbEntity
  8
0
 62
     9
100
AcDbBlockReference
  2
_OPEN30
 10
-37.09549929822957
 20
-4.588175485979718
 30
0.0
 41
3.000002787824364
 42
2.999989273978464
 50
270.0
  0
INSERT
  5
BA
330
5B
100
AcDbEntity
  8
0
 62
     9
100
AcDbBlockReference
  2
_OPEN30
 10
-37.09549929822957
 20
12.41182451402028
 30
0.0
 41
3.000002787824364
 42
2.999989273978464
 50
90.0
  0
TEXT
  5
BB
330
5B
100
AcDbEntity
  8
0
 62
     7
100
AcDbText
 10
-38.09549929822957
 20
-0.8881754859797155
 30
0.0
 40
4.0
  1
φ17
 50
90.0
 41
0.7499999999999996
  7
FDASTYLE0
 72
     5
 11
-38.09549929822957
 21
8.711824514020279
 31
0.0
100
AcDbText
  0
ENDBLK
  5
5D
330
5B
100
AcDbEntity
  8
0
100
AcDbBlockEnd
  0
BLOCK
  5
5F
330
5E
100
AcDbEntity
  8
0
100
AcDbBlockBegin
  2
DA_IMAGEDIMGROUP_5
 70
     0
 71
     0
 10
0.0
 20
0.0
 30
0.0
  3
DA_IMAGEDIMGROUP_5
  1

  0
LINE
  5
BC
330
5E
100
AcDbEntity
  8
0
  6
CONTINUOUS
 62
     9
100
AcDbLine
 10
-93.09658661634616
 20
3.91182451402031
 30
0.0
 11
-101.0954992982295
 21
3.91182451402031
 31
0.0
  0
LINE
  5
BD
330
5E
100
AcDbEntity
  8
0
  6
CONTINUOUS
 62
     9
100
AcDbLine
 10
-89.84549929822957
 20
-13.0881754859797
 30
0.0
 11
-101.0954992982295
 21
-13.0881754859797
 31
0.0
  0
LINE
  5
BE
330
5E
100
AcDbEntity
  8
0
  6
CONTINUOUS
 62
     9
100
AcDbLine
 10
-89.84549929822954
 20
20.91182451402032
 30
0.0
 11
-101.0954992982295
 21
20.91182451402032
 31
0.0
  0
LINE
  5
BF
330
5E
100
AcDbEntity
  8
0
  6
CONTINUOUS
 62
     9
100
AcDbLine
 10
-100.0954992982295
 20
-13.0881754859797
 30
0.0
 11
-100.0954992982295
 21
3.91182451402031
 31
0.0
  0
INSERT
  5
C0
330
5E
100
AcDbEntity
  8
0
 62
     9
100
AcDbBlockReference
  2
_OPEN30
 10
-100.0954992982295
 20
-13.0881754859797
 30
0.0
 41
3.000002787824364
 42
2.999989273978464
 50
270.0
  0
INSERT
  5
C1
330
5E
100
AcDbEntity
  8
0
 62
     9
100
AcDbBlockReference
  2
_OPEN30
 10
-100.0954992982295
 20
3.91182451402031
 30
0.0
 41
3.000002787824364
 42
2.999989273978464
 50
90.0
  0
LINE
  5
C2
330
5E
100
AcDbEntity
  8
0
  6
CONTINUOUS
 62
     9
100
AcDbLine
 10
-100.0954992982295
 20
3.91182451402031
 30
0.0
 11
-100.0954992982295
 21
20.91182451402032
 31
0.0
  0
INSERT
  5
C3
330
5E
100
AcDbEntity
  8
0
 62
     9
100
AcDbBlockReference
  2
_OPEN30
 10
-100.0954992982295
 20
3.91182451402031
 30
0.0
 41
3.000002787824364
 42
2.999989273978464
 50
270.0
  0
INSERT
  5
C4
330
5E
100
AcDbEntity
  8
0
 62
     9
100
AcDbBlockReference
  2
_OPEN30
 10
-100.0954992982295
 20
20.91182451402032
 30
0.0
 41
3.000002787824364
 42
2.999989273978464
 50
90.0
  0
TEXT
  5
C5
330
5E
100
AcDbEntity
  8
0
 62
     7
100
AcDbText
 10
-101.0954992982295
 20
-7.7881754859797
 30
0.0
 40
4.0
  1
17
 50
90.0
 41
0.8000000000000007
  7
FDASTYLE0
 72
     5
 11
-101.0954992982295
 21
-1.388175485979694
 31
0.0
100
AcDbText
  0
TEXT
  5
C6
330
5E
100
AcDbEntity
  8
0
 62
     7
100
AcDbText
 10
-101.0954992982295
 20
9.211824514020314
 30
0.0
 40
4.0
  1
17
 50
90.0
 41
0.8000000000000007
  7
FDASTYLE0
 72
     5
 11
-101.0954992982295
 21
15.61182451402032
 31
0.0
100
AcDbText
  0
ENDBLK
  5
60
330
5E
100
AcDbEntity
  8
0
100
AcDbBlockEnd
  0
BLOCK
  5
62
330
61
100
AcDbEntity
  8
0
100
AcDbBlockBegin
  2
DA_IMAGEDIMGROUP_6
 70
     0
 71
     0
 10
0.0
 20
0.0
 30
0.0
  3
DA_IMAGEDIMGROUP_6
  1

  0
LINE
  5
C7
330
61
100
AcDbEntity
  8
0
  6
CONTINUOUS
 62
     9
100
AcDbLine
 10
-85.59549929822954
 20
25.16182451402032
 30
0.0
 11
-85.59549929822954
 21
34.41182451402031
 31
0.0
  0
LINE
  5
C8
330
61
100
AcDbEntity
  8
0
  6
CONTINUOUS
 62
     9
100
AcDbLine
 10
-68.59549929822954
 20
28.41291183213693
 30
0.0
 11
-68.59549929822954
 21
34.41182451402031
 31
0.0
  0
LINE
  5
C9
330
61
100
AcDbEntity
  8
0
  6
CONTINUOUS
 62
     9
100
AcDbLine
 10
-51.59549929822956
 20
25.16182451402031
 30
0.0
 11
-51.59549929822956
 21
34.41182451402031
 31
0.0
  0
LINE
  5
CA
330
61
100
AcDbEntity
  8
0
  6
CONTINUOUS
 62
     9
100
AcDbLine
 10
-85.59549929822954
 20
33.41182451402031
 30
0.0
 11
-68.59549929822954
 21
33.41182451402031
 31
0.0
  0
INSERT
  5
CB
330
61
100
AcDbEntity
  8
0
 62
     9
100
AcDbBlockReference
  2
_OPEN30
 10
-85.59549929822954
 20
33.41182451402031
 30
0.0
 41
3.000002787824364
 42
2.999989273978464
 50
180.0
  0
INSERT
  5
CC
330
61
100
AcDbEntity
  8
0
 62
     9
100
AcDbBlockReference
  2
_OPEN30
 10
-68.59549929822954
 20
33.41182451402031
 30
0.0
 41
3.000002787824364
 42
2.999989273978464
 50
360.0
  0
LINE
  5
CD
330
61
100
AcDbEntity
  8
0
  6
CONTINUOUS
 62
     9
100
AcDbLine
 10
-68.59549929822954
 20
33.41182451402031
 30
0.0
 11
-51.59549929822956
 21
33.41182451402031
 31
0.0
  0
INSERT
  5
CE
330
61
100
AcDbEntity
  8
0
 62
     9
100
AcDbBlockReference
  2
_OPEN30
 10
-68.59549929822954
 20
33.41182451402031
 30
0.0
 41
3.000002787824364
 42
2.999989273978464
 50
180.0
  0
INSERT
  5
CF
330
61
100
AcDbEntity
  8
0
 62
     9
100
AcDbBlockReference
  2
_OPEN30
 10
-51.59549929822956
 20
33.41182451402031
 30
0.0
 41
3.000002787824364
 42
2.999989273978464
 50
360.0
  0
TEXT
  5
D0
330
61
100
AcDbEntity
  8
0
 62
     7
100
AcDbText
 10
-80.29549929822954
 20
34.41182451402031
 30
0.0
 40
4.0
  1
17
 41
0.8000000000000007
  7
FDASTYLE0
 72
     5
 11
-73.89549929822954
 21
34.41182451402031
 31
0.0
100
AcDbText
  0
TEXT
  5
D1
330
61
100
AcDbEntity
  8
0
 62
     7
100
AcDbText
 10
-63.29549929822956
 20
34.41182451402031
 30
0.0
 40
4.0
  1
17
 41
0.8000000000000007
  7
FDASTYLE0
 72
     5
 11
-56.89549929822955
 21
34.41182451402031
 31
0.0
100
AcDbText
  0
ENDBLK
  5
63
330
61
100
AcDbEntity
  8
0
100
AcDbBlockEnd
  0
BLOCK
  5
65
330
64
100
AcDbEntity
  8
0
100
AcDbBlockBegin
  2
DC_GROUP_4
 70
     0
 71
     0
 10
0.0
 20
0.0
 30
0.0
  3
DC_GROUP_4
  1

  0
LINE
  5
D2
330
64
100
AcDbEntity
  8
0
  6
CONTINUOUS
 62
     9
100
AcDbLine
 10
-86.35761810184324
 20
-15.20517216268432
 30
0.0
 11
-90.09549929822957
 21
-25.58817548597969
 31
0.0
  0
INSERT
  5
D3
330
64
100
AcDbEntity
  8
0
 62
     9
100
AcDbBlockReference
  2
_OPEN30
 10
-86.35761810184324
 20
-15.20517216268432
 30
0.0
 41
3.000002787824364
 42
2.999989273978464
 50
70.20112364547511
  0
LINE
  5
D4
330
64
100
AcDbEntity
  8
0
  6
CONTINUOUS
 62
     9
100
AcDbLine
 10
-90.09549929822957
 20
-25.58817548597969
 30
0.0
 11
-71.61549929822957
 21
-25.58817548597969
 31
0.0
  0
TEXT
  5
D5
330
64
100
AcDbEntity
  8
0
 62
     7
100
AcDbText
 10
-90.09549929822957
 20
-24.58817548597969
 30
0.0
 40
4.0
  1
　4-φ4.5
 41
0.7567567567567569
  7
FDASTYLE0
 72
     5
 11
-67.69549929822956
 21
-24.58817548597969
 31
0.0
100
AcDbText
  0
ENDBLK
  5
66
330
64
100
AcDbEntity
  8
0
100
AcDbBlockEnd
  0
BLOCK
  5
68
330
67
100
AcDbEntity
  8
0
100
AcDbBlockBegin
  2
DA_IMAGEDIMGROUP_7
 70
     0
 71
     0
 10
0.0
 20
0.0
 30
0.0
  3
DA_IMAGEDIMGROUP_7
  1

  0
LINE
  5
D6
330
67
100
AcDbEntity
  8
0
  6
CONTINUOUS
 62
     9
100
AcDbLine
 10
-90.09549929822954
 20
21.91182451402031
 30
0.0
 11
-90.09549929822954
 21
42.41182451402031
 31
0.0
  0
LINE
  5
D7
330
67
100
AcDbEntity
  8
0
  6
CONTINUOUS
 62
     9
100
AcDbLine
 10
-47.09549929822956
 20
21.91182451402031
 30
0.0
 11
-47.09549929822956
 21
42.41182451402031
 31
0.0
  0
LINE
  5
D8
330
67
100
AcDbEntity
  8
0
  6
CONTINUOUS
 62
     9
100
AcDbLine
 10
-90.09549929822954
 20
41.41182451402031
 30
0.0
 11
-47.09549929822956
 21
41.41182451402031
 31
0.0
  0
INSERT
  5
D9
330
67
100
AcDbEntity
  8
0
 62
     9
100
AcDbBlockReference
  2
_OPEN30
 10
-90.09549929822954
 20
41.41182451402031
 30
0.0
 41
3.000002787824364
 42
2.999989273978464
 50
180.0
  0
INSERT
  5
DA
330
67
100
AcDbEntity
  8
0
 62
     9
100
AcDbBlockReference
  2
_OPEN30
 10
-47.09549929822956
 20
41.41182451402031
 30
0.0
 41
3.000002787824364
 42
2.999989273978464
 50
360.0
  0
TEXT
  5
DB
330
67
100
AcDbEntity
  8
0
 62
     7
100
AcDbText
 10
-78.05549929822955
 20
42.41182451402031
 30
0.0
 40
4.0
  1
□43
 41
0.7499999999999996
  7
FDASTYLE0
 72
     5
 11
-68.45549929822955
 21
42.41182451402031
 31
0.0
100
AcDbText
  0
TEXT
  5
DC
330
67
100
AcDbEntity
  8
0
 62
     7
100
AcDbText
 10
-67.45549929822955
 20
45.0118245140203
 30
0.0
 40
2.6
  1
±0.8
 41
0.7619047619047619
  7
FDASTYLE0
 72
     5
 11
-59.13549929822955
 21
45.0118245140203
 31
0.0
100
AcDbText
  0
ENDBLK
  5
69
330
67
100
AcDbEntity
  8
0
100
AcDbBlockEnd
  0
BLOCK
  5
6B
330
6A
100
AcDbEntity
  8
0
100
AcDbBlockBegin
  2
DA_IMAGEDIMGROUP_8
 70
     0
 71
     0
 10
0.0
 20
0.0
 30
0.0
  3
DA_IMAGEDIMGROUP_8
  1

  0
LINE
  5
DD
330
6A
100
AcDbEntity
  8
0
  6
CONTINUOUS
 62
     9
100
AcDbLine
 10
62.50450070177043
 20
-11.08817548597967
 30
0.0
 11
72.70450070177044
 21
-11.08817548597967
 31
0.0
  0
LINE
  5
DE
330
6A
100
AcDbEntity
  8
0
  6
CONTINUOUS
 62
     9
100
AcDbLine
 10
62.50450070177043
 20
18.91182451402028
 30
0.0
 11
72.70450070177044
 21
18.91182451402028
 31
0.0
  0
LINE
  5
DF
330
6A
100
AcDbEntity
  8
0
  6
CONTINUOUS
 62
     9
100
AcDbLine
 10
71.70450070177044
 20
-11.08817548597967
 30
0.0
 11
71.70450070177044
 21
18.91182451402028
 31
0.0
  0
INSERT
  5
E0
330
6A
100
AcDbEntity
  8
0
 62
     9
100
AcDbBlockReference
  2
_OPEN30
 10
71.70450070177044
 20
-11.08817548597967
 30
0.0
 41
3.000002787824364
 42
2.999989273978464
 50
270.0
  0
INSERT
  5
E1
330
6A
100
AcDbEntity
  8
0
 62
     9
100
AcDbBlockReference
  2
_OPEN30
 10
71.70450070177044
 20
18.91182451402028
 30
0.0
 41
3.000002787824364
 42
2.999989273978464
 50
90.0
  0
TEXT
  5
E2
330
6A
100
AcDbEntity
  8
0
 62
     7
100
AcDbText
 10
70.70450070177044
 20
-6.588175485979691
 30
0.0
 40
4.0
  1
φ30
 50
90.0
 41
0.7499999999999996
  7
FDASTYLE0
 72
     5
 11
70.70450070177044
 21
3.011824514020304
 31
0.0
100
AcDbText
  0
TEXT
  5
E3
330
6A
100
AcDbEntity
  8
0
 62
     7
100
AcDbText
 10
68.10450070177045
 20
4.011824514020304
 30
0.0
 40
2.6
  1
+0.05
 50
90.0
 41
0.8000000000000005
  7
FDASTYLE0
 72
     5
 11
68.10450070177045
 21
14.41182451402031
 31
0.0
100
AcDbText
  0
TEXT
  5
E4
330
6A
100
AcDbEntity
  8
0
 62
     7
100
AcDbText
 10
70.90450070177045
 20
4.011824514020304
 30
0.0
 40
2.6
  1
 0
 50
90.0
 41
0.7999999999999995
  7
FDASTYLE0
 72
     5
 11
70.90450070177045
 21
8.171824514020301
 31
0.0
100
AcDbText
  0
ENDBLK
  5
6C
330
6A
100
AcDbEntity
  8
0
100
AcDbBlockEnd
  0
BLOCK
  5
6E
330
6D
100
AcDbEntity
  8
0
100
AcDbBlockBegin
  2
DA_IMAGEDIMGROUP_9
 70
     0
 71
     0
 10
0.0
 20
0.0
 30
0.0
  3
DA_IMAGEDIMGROUP_9
  1

  0
LINE
  5
E5
330
6D
100
AcDbEntity
  8
0
  6
CONTINUOUS
 62
     9
100
AcDbLine
 10
-8.095499298229573
 20
6.91182451402031
 30
0.0
 11
-18.09549929822957
 21
6.91182451402031
 31
0.0
  0
LINE
  5
E6
330
6D
100
AcDbEntity
  8
0
  6
CONTINUOUS
 62
     9
100
AcDbLine
 10
-7.595499298229573
 20
-0.0881754859796899
 30
0.0
 11
-18.09549929822957
 21
-0.0881754859796899
 31
0.0
  0
LINE
  5
E7
330
6D
100
AcDbEntity
  8
0
  6
CONTINUOUS
 62
     9
100
AcDbLine
 10
-17.09549929822957
 20
-0.0881754859796899
 30
0.0
 11
-17.09549929822957
 21
6.91182451402031
 31
0.0
  0
LINE
  5
E8
330
6D
100
AcDbEntity
  8
0
  6
CONTINUOUS
 62
     9
100
AcDbLine
 10
-17.09549929822957
 20
29.01182451402028
 30
0.0
 11
-17.09549929822957
 21
6.91182451402031
 31
0.0
  0
INSERT
  5
E9
330
6D
100
AcDbEntity
  8
0
 62
     9
100
AcDbBlockReference
  2
_OPEN30
 10
-17.09549929822957
 20
6.91182451402031
 30
0.0
 41
3.000002787824364
 42
2.999989273978464
 50
270.0
  0
LINE
  5
EA
330
6D
100
AcDbEntity
  8
0
  6
CONTINUOUS
 62
     9
100
AcDbLine
 10
-17.09549929822957
 20
-5.08817548597969
 30
0.0
 11
-17.09549929822957
 21
-0.0881754859796899
 31
0.0
  0
INSERT
  5
EB
330
6D
100
AcDbEntity
  8
0
 62
     9
100
AcDbBlockReference
  2
_OPEN30
 10
-17.09549929822957
 20
-0.0881754859796899
 30
0.0
 41
3.000002787824364
 42
2.999989273978464
 50
90.0
  0
TEXT
  5
EC
330
6D
100
AcDbEntity
  8
0
 62
     7
100
AcDbText
 10
-18.09549929822957
 20
13.41182451402028
 30
0.0
 40
4.0
  1
7
 50
90.0
 41
0.7999999999999998
  7
FDASTYLE0
 72
     5
 11
-18.09549929822957
 21
16.61182451402028
 31
0.0
100
AcDbText
  0
TEXT
  5
ED
330
6D
100
AcDbEntity
  8
0
 62
     7
100
AcDbText
 10
-20.69549929822957
 20
17.61182451402028
 30
0.0
 40
2.6
  1
±0.15
 50
90.0
 41
0.7692307692307694
  7
FDASTYLE0
 72
     5
 11
-20.69549929822957
 21
28.01182451402028
 31
0.0
100
AcDbText
  0
ENDBLK
  5
6F
330
6D
100
AcDbEntity
  8
0
100
AcDbBlockEnd
  0
BLOCK
  5
71
330
70
100
AcDbEntity
  8
0
100
AcDbBlockBegin
  2
DA_IMAGEDIMGROUP_10
 70
     0
 71
     0
 10
0.0
 20
0.0
 30
0.0
  3
DA_IMAGEDIMGROUP_10
  1

  0
LINE
  5
EE
330
70
100
AcDbEntity
  8
0
  6
CONTINUOUS
 62
     9
100
AcDbLine
 10
-7.595499298229573
 20
-0.0881754859796899
 30
0.0
 11
-28.09549929822957
 21
-0.0881754859796899
 31
0.0
  0
LINE
  5
EF
330
70
100
AcDbEntity
  8
0
  6
CONTINUOUS
 62
     9
100
AcDbLine
 10
3.904500701770427
 20
7.91182451402031
 30
0.0
 11
-28.09549929822957
 21
7.91182451402031
 31
0.0
  0
LINE
  5
F0
330
70
100
AcDbEntity
  8
0
  6
CONTINUOUS
 62
     9
100
AcDbLine
 10
-27.09549929822957
 20
-0.0881754859796899
 30
0.0
 11
-27.09549929822957
 21
7.91182451402031
 31
0.0
  0
LINE
  5
F1
330
70
100
AcDbEntity
  8
0
  6
CONTINUOUS
 62
     9
100
AcDbLine
 10
-27.09549929822957
 20
34.29182451402028
 30
0.0
 11
-27.09549929822957
 21
7.91182451402031
 31
0.0
  0
INSERT
  5
F2
330
70
100
AcDbEntity
  8
0
 62
     9
100
AcDbBlockReference
  2
_OPEN30
 10
-27.09549929822957
 20
7.91182451402031
 30
0.0
 41
3.000002787824364
 42
2.999989273978464
 50
270.0
  0
LINE
  5
F3
330
70
100
AcDbEntity
  8
0
  6
CONTINUOUS
 62
     9
100
AcDbLine
 10
-27.09549929822957
 20
-5.08817548597969
 30
0.0
 11
-27.09549929822957
 21
-0.0881754859796899
 31
0.0
  0
INSERT
  5
F4
330
70
100
AcDbEntity
  8
0
 62
     9
100
AcDbBlockReference
  2
_OPEN30
 10
-27.09549929822957
 20
-0.0881754859796899
 30
0.0
 41
3.000002787824364
 42
2.999989273978464
 50
90.0
  0
TEXT
  5
F5
330
70
100
AcDbEntity
  8
0
 62
     7
100
AcDbText
 10
-28.09549929822957
 20
13.41182451402028
 30
0.0
 40
4.0
  1
φ8
 50
90.0
 41
0.7272727272727274
  7
FDASTYLE0
 72
     5
 11
-28.09549929822957
 21
19.81182451402028
 31
0.0
100
AcDbText
  0
TEXT
  5
F6
330
70
100
AcDbEntity
  8
0
 62
     7
100
AcDbText
 10
-30.69549929822957
 20
20.81182451402028
 30
0.0
 40
2.6
  1
 0
 50
90.0
 41
0.8
  7
FDASTYLE0
 72
     5
 11
-30.69549929822957
 21
24.97182451402028
 31
0.0
100
AcDbText
  0
TEXT
  5
F7
330
70
100
AcDbEntity
  8
0
 62
     7
100
AcDbText
 10
-27.89549929822957
 20
20.81182451402028
 30
0.0
 40
2.6
  1
-0.015
 50
90.0
 41
0.7999999999999999
  7
FDASTYLE0
 72
     5
 11
-27.89549929822957
 21
33.29182451402028
 31
0.0
100
AcDbText
  0
ENDBLK
  5
72
330
70
100
AcDbEntity
  8
0
100
AcDbBlockEnd
  0
BLOCK
  5
74
330
73
100
AcDbEntity
  8
0
100
AcDbBlockBegin
  2
DA_IMAGEDIMGROUP_11
 70
     0
 71
     0
 10
0.0
 20
0.0
 30
0.0
  3
DA_IMAGEDIMGROUP_11
  1

  0
LINE
  5
F8
330
73
100
AcDbEntity
  8
0
  6
CONTINUOUS
 62
     9
100
AcDbLine
 10
20.30450070177045
 20
-4.588175485979718
 30
0.0
 11
20.30450070177045
 21
12.41182451402028
 31
0.0
  0
LINE
  5
F9
330
73
100
AcDbEntity
  8
0
  6
CONTINUOUS
 62
     9
100
AcDbLine
 10
20.30450070177045
 20
38.30960451402029
 30
0.0
 11
20.30450070177045
 21
12.41182451402028
 31
0.0
  0
INSERT
  5
FA
330
73
100
AcDbEntity
  8
0
 62
     9
100
AcDbBlockReference
  2
_OPEN30
 10
20.30450070177045
 20
12.41182451402028
 30
0.0
 41
3.000002787824364
 42
2.999989273978464
 50
270.0
  0
LINE
  5
FB
330
73
100
AcDbEntity
  8
0
  6
CONTINUOUS
 62
     9
100
AcDbLine
 10
20.30450070177045
 20
-9.588175485979718
 30
0.0
 11
20.30450070177045
 21
-4.588175485979718
 31
0.0
  0
INSERT
  5
FC
330
73
100
AcDbEntity
  8
0
 62
     9
100
AcDbBlockReference
  2
_OPEN30
 10
20.30450070177045
 20
-4.588175485979718
 30
0.0
 41
3.000002787824364
 42
2.999989273978464
 50
90.0
  0
TEXT
  5
FD
330
73
100
AcDbEntity
  8
0
 62
     7
100
AcDbText
 10
19.30450070177045
 20
16.30960451402028
 30
0.0
 40
4.0
  1
φ17
 50
90.0
 41
0.7500000000000001
  7
FDASTYLE0
 72
     5
 11
19.30450070177045
 21
25.90960451402028
 31
0.0
100
AcDbText
  0
TEXT
  5
FE
330
73
100
AcDbEntity
  8
0
 62
     7
100
AcDbText
 10
16.70450070177045
 20
26.90960451402028
 30
0.0
 40
2.6
  1
+0.10
 50
90.0
 41
0.8000000000000002
  7
FDASTYLE0
 72
     5
 11
16.70450070177045
 21
37.30960451402029
 31
0.0
100
AcDbText
  0
TEXT
  5
FF
330
73
100
AcDbEntity
  8
0
 62
     7
100
AcDbText
 10
19.50450070177045
 20
26.90960451402028
 30
0.0
 40
2.6
  1
-0.03
 50
90.0
 41
0.7999999999999996
  7
FDASTYLE0
 72
     5
 11
19.50450070177045
 21
37.30960451402028
 31
0.0
100
AcDbText
  0
ENDBLK
  5
75
330
73
100
AcDbEntity
  8
0
100
AcDbBlockEnd
  0
BLOCK
  5
77
330
76
100
AcDbEntity
  8
0
100
AcDbBlockBegin
  2
DA_IMAGEDIMGROUP_12
 70
     0
 71
     0
 10
0.0
 20
0.0
 30
0.0
  3
DA_IMAGEDIMGROUP_12
  1

  0
LINE
  5
100
330
76
100
AcDbEntity
  8
0
  6
CONTINUOUS
 62
     9
100
AcDbLine
 10
61.70450070177044
 20
-18.38817548597969
 30
0.0
 11
61.70450070177044
 21
-26.58817548597969
 31
0.0
  0
LINE
  5
101
330
76
100
AcDbEntity
  8
0
  6
CONTINUOUS
 62
     9
100
AcDbLine
 10
53.35450070177044
 20
-1.288175485979693
 30
0.0
 11
53.35450070177044
 21
-26.58817548597969
 31
0.0
  0
LINE
  5
102
330
76
100
AcDbEntity
  8
0
  6
CONTINUOUS
 62
     9
100
AcDbLine
 10
53.35450070177044
 20
-25.58817548597969
 30
0.0
 11
61.70450070177044
 21
-25.58817548597969
 31
0.0
  0
LINE
  5
103
330
76
100
AcDbEntity
  8
0
  6
CONTINUOUS
 62
     9
100
AcDbLine
 10
90.80228070177044
 20
-25.58817548597969
 30
0.0
 11
61.70450070177044
 21
-25.58817548597969
 31
0.0
  0
INSERT
  5
104
330
76
100
AcDbEntity
  8
0
 62
     9
100
AcDbBlockReference
  2
_OPEN30
 10
61.70450070177044
 20
-25.58817548597969
 30
0.0
 41
3.000002787824364
 42
2.999989273978464
 50
180.0
  0
LINE
  5
105
330
76
100
AcDbEntity
  8
0
  6
CONTINUOUS
 62
     9
100
AcDbLine
 10
48.35450070177044
 20
-25.58817548597969
 30
0.0
 11
53.35450070177044
 21
-25.58817548597969
 31
0.0
  0
INSERT
  5
106
330
76
100
AcDbEntity
  8
0
 62
     9
100
AcDbBlockReference
  2
_OPEN30
 10
53.35450070177044
 20
-25.58817548597969
 30
0.0
 41
3.000002787824364
 42
2.999989273978464
 50
360.0
  0
TEXT
  5
107
330
76
100
AcDbEntity
  8
0
 62
     7
100
AcDbText
 10
65.60228070177044
 20
-24.58817548597969
 30
0.0
 40
4.0
  1
8.35
 41
0.7999999999999998
  7
FDASTYLE0
 72
     5
 11
78.40228070177044
 21
-24.58817548597969
 31
0.0
100
AcDbText
  0
TEXT
  5
108
330
76
100
AcDbEntity
  8
0
 62
     7
100
AcDbText
 10
79.40228070177044
 20
-21.98817548597969
 30
0.0
 40
2.6
  1
±0.15
 41
0.7692307692307697
  7
FDASTYLE0
 72
     5
 11
89.80228070177044
 21
-21.98817548597969
 31
0.0
100
AcDbText
  0
ENDBLK
  5
78
330
76
100
AcDbEntity
  8
0
100
AcDbBlockEnd
  0
BLOCK
  5
7A
330
79
100
AcDbEntity
  8
0
100
AcDbBlockBegin
  2
DA_IMAGEDIMGROUP_13
 70
     0
 71
     0
 10
0.0
 20
0.0
 30
0.0
  3
DA_IMAGEDIMGROUP_13
  1

  0
LINE
  5
109
330
79
100
AcDbEntity
  8
0
  6
CONTINUOUS
 62
     9
100
AcDbLine
 10
22.30450070177042
 20
-18.0881754859797
 30
0.0
 11
22.30450070177042
 21
-26.58817548597967
 31
0.0
  0
LINE
  5
10A
330
79
100
AcDbEntity
  8
0
  6
CONTINUOUS
 62
     9
100
AcDbLine
 10
20.3045007017712
 20
-5.588175485979718
 30
0.0
 11
20.3045007017712
 21
-26.58817548597967
 31
0.0
  0
LINE
  5
10B
330
79
100
AcDbEntity
  8
0
  6
CONTINUOUS
 62
     9
100
AcDbLine
 10
20.3045007017712
 20
-25.58817548597967
 30
0.0
 11
22.30450070177042
 21
-25.58817548597967
 31
0.0
  0
LINE
  5
10C
330
79
100
AcDbEntity
  8
0
  6
CONTINUOUS
 62
     9
100
AcDbLine
 10
12.2067207017712
 20
-25.58817548597967
 30
0.0
 11
20.3045007017712
 21
-25.58817548597967
 31
0.0
  0
INSERT
  5
10D
330
79
100
AcDbEntity
  8
0
 62
     9
100
AcDbBlockReference
  2
_OPEN30
 10
20.3045007017712
 20
-25.58817548597967
 30
0.0
 41
3.000002787824364
 42
2.999989273978464
 50
360.0
  0
LINE
  5
10E
330
79
100
AcDbEntity
  8
0
  6
CONTINUOUS
 62
     9
100
AcDbLine
 10
27.30450070177042
 20
-25.58817548597967
 30
0.0
 11
22.30450070177042
 21
-25.58817548597967
 31
0.0
  0
INSERT
  5
10F
330
79
100
AcDbEntity
  8
0
 62
     9
100
AcDbBlockReference
  2
_OPEN30
 10
22.30450070177042
 20
-25.58817548597967
 30
0.0
 41
3.000002787824364
 42
2.999989273978464
 50
180.0
  0
TEXT
  5
110
330
79
100
AcDbEntity
  8
0
 62
     7
100
AcDbText
 10
13.2067207017712
 20
-24.58817548597967
 30
0.0
 40
4.0
  1
2
 41
0.7999999999999998
  7
FDASTYLE0
 72
     5
 11
16.4067207017712
 21
-24.58817548597967
 31
0.0
100
AcDbText
  0
ENDBLK
  5
7B
330
79
100
AcDbEntity
  8
0
100
AcDbBlockEnd
  0
BLOCK
  5
95
330
94
100
AcDbEntity
  8
0
100
AcDbBlockBegin
  2
_OPEN30
 70
     0
 71
     0
 10
0.0
 20
0.0
 30
0.0
  3
_OPEN30
  1

  0
LINE
  5
97
330
94
100
AcDbEntity
  8
0
  6
BYBLOCK
 62
     0
100
AcDbLine
 10
-1.0
 20
0.267949
 30
0.0
 11
0.0
 21
0.0
 31
0.0
  0
LINE
  5
98
330
94
100
AcDbEntity
  8
0
  6
BYBLOCK
 62
     0
100
AcDbLine
 10
0.0
 20
0.0
 30
0.0
 11
-1.0
 21
-0.267949
 31
0.0
  0
LINE
  5
99
330
94
100
AcDbEntity
  8
0
  6
BYBLOCK
 62
     0
100
AcDbLine
 10
0.0
 20
0.0
 30
0.0
 11
-1.0
 21
0.0
 31
0.0
  0
ENDBLK
  5
96
330
94
100
AcDbEntity
  8
0
100
AcDbBlockEnd
  0
ENDSEC
  0
SECTION
  2
ENTITIES
  0
LINE
  5
111
330
1F
100
AcDbEntity
  8
0
  6
CENTER
 62
     9
100
AcDbLine
 10
-9.095499298229573
 20
3.91182451402031
 30
0.0
 11
63.70450070177044
 21
3.91182451402031
 31
0.0
  0
LINE
  5
112
330
1F
100
AcDbEntity
  8
0
  6
CENTER
 62
     9
100
AcDbLine
 10
52.85450070177044
 20
7.511824514020312
 30
0.0
 11
57.85450070177044
 21
7.511824514020312
 31
0.0
  0
LINE
  5
113
330
1F
100
AcDbEntity
  8
0
  6
CENTER
 62
     9
100
AcDbLine
 10
52.85450070177044
 20
0.3118245140203086
 30
0.0
 11
57.85450070177044
 21
0.3118245140203086
 31
0.0
  0
LINE
  5
114
330
1F
100
AcDbEntity
  8
0
  6
DASHED2
 62
     9
100
AcDbLine
 10
61.50450070177043
 20
-11.08817548597967
 30
0.0
 11
61.50450070177043
 21
18.91182451402028
 31
0.0
  0
LINE
  5
115
330
1F
100
AcDbEntity
  8
0
  6
DIVIDE
 62
     9
100
AcDbLine
 10
53.35450070177044
 20
8.111824514020306
 30
0.0
 11
57.35450070177044
 21
8.111824514020306
 31
0.0
  0
LINE
  5
116
330
1F
100
AcDbEntity
  8
0
  6
DIVIDE
 62
     9
100
AcDbLine
 10
53.35450070177044
 20
8.111824514020306
 30
0.0
 11
53.35450070177044
 21
3.91182451402031
 31
0.0
  0
LINE
  5
117
330
1F
100
AcDbEntity
  8
0
  6
DIVIDE
 62
     9
100
AcDbLine
 10
57.35450070177044
 20
8.111824514020306
 30
0.0
 11
57.35450070177044
 21
3.91182451402031
 31
0.0
  0
LINE
  5
118
330
1F
100
AcDbEntity
  8
0
  6
DIVIDE
 62
     9
100
AcDbLine
 10
53.35450070177044
 20
-0.2881754859796928
 30
0.0
 11
57.35450070177044
 21
-0.2881754859796928
 31
0.0
  0
LINE
  5
119
330
1F
100
AcDbEntity
  8
0
  6
DIVIDE
 62
     9
100
AcDbLine
 10
53.35450070177044
 20
-0.2881754859796928
 30
0.0
 11
53.35450070177044
 21
3.91182451402031
 31
0.0
  0
LINE
  5
11A
330
1F
100
AcDbEntity
  8
0
  6
DIVIDE
 62
     9
100
AcDbLine
 10
57.35450070177044
 20
-0.2881754859796928
 30
0.0
 11
57.35450070177044
 21
3.91182451402031
 31
0.0
  0
LINE
  5
11B
330
1F
100
AcDbEntity
  8
LAYER0003
  6
CONTINUOUS
 62
     3
100
AcDbLine
 10
61.50450070177043
 20
-17.58817548597969
 30
0.0
 11
58.40450070177043
 21
-17.58817548597969
 31
0.0
  0
LINE
  5
11C
330
1F
100
AcDbEntity
  8
LAYER0003
  6
CONTINUOUS
 62
     3
100
AcDbLine
 10
61.70450070177044
 20
25.21182451402032
 30
0.0
 11
61.70450070177044
 21
-17.38817548597969
 31
0.0
  0
LINE
  5
11D
330
1F
100
AcDbEntity
  8
LAYER0003
  6
CONTINUOUS
 62
     3
100
AcDbLine
 10
61.50450070177043
 20
25.41182451402032
 30
0.0
 11
58.40450070177043
 21
25.41182451402032
 31
0.0
  0
ARC
  5
11E
330
1F
100
AcDbEntity
  8
LAYER0003
  6
CONTINUOUS
 62
     3
100
AcDbCircle
 10
61.50450070177043
 20
-17.38817548597969
 30
0.0
 40
0.2
100
AcDbArc
 50
270.0
 51
360.0
  0
ARC
  5
11F
330
1F
100
AcDbEntity
  8
LAYER0003
  6
CONTINUOUS
 62
     3
100
AcDbCircle
 10
61.50450070177043
 20
25.21182451402032
 30
0.0
 40
0.2
100
AcDbArc
 50
0.0
 51
90.0
  0
LINE
  5
120
330
1F
100
AcDbEntity
  8
LAYER0003
  6
DASHED2
 62
     9
100
AcDbLine
 10
61.50450070177043
 20
-11.08817548597966
 30
0.0
 11
59.70450070177044
 21
-11.08817548597966
 31
0.0
  0
LINE
  5
121
330
1F
100
AcDbEntity
  8
LAYER0003
  6
DASHED2
 62
     9
100
AcDbLine
 10
59.70450070177044
 20
18.91182451402032
 30
0.0
 11
59.70450070177044
 21
-11.08817548597966
 31
0.0
  0
LINE
  5
122
330
1F
100
AcDbEntity
  8
LAYER0003
  6
DASHED2
 62
     9
100
AcDbLine
 10
61.50450070177043
 20
-11.08817548597966
 30
0.0
 11
61.70450070177044
 21
-11.28817548597966
 31
0.0
  0
LINE
  5
123
330
1F
100
AcDbEntity
  8
LAYER0003
  6
DASHED2
 62
     9
100
AcDbLine
 10
61.50450070177043
 20
18.91182451402028
 30
0.0
 11
59.70450070177044
 21
18.91182451402028
 31
0.0
  0
LINE
  5
124
330
1F
100
AcDbEntity
  8
LAYER0003
  6
DASHED2
 62
     9
100
AcDbLine
 10
61.50450070177043
 20
18.91182451402028
 30
0.0
 11
61.70450070177044
 21
19.11182451402028
 31
0.0
  0
LINE
  5
125
330
1F
100
AcDbEntity
  8
0
  6
CONTINUOUS
 62
     3
100
AcDbLine
 10
58.40450070177043
 20
-17.58817548597967
 30
0.0
 11
58.40450070177043
 21
25.41182451402032
 31
0.0
  0
LINE
  5
126
330
1F
100
AcDbEntity
  8
0
  6
CONTINUOUS
 62
     3
100
AcDbLine
 10
27.90450070177044
 20
-17.58817548597967
 30
0.0
 11
27.90450070177044
 21
25.41182451402032
 31
0.0
  0
LINE
  5
127
330
1F
100
AcDbEntity
  8
0
  6
CONTINUOUS
 62
     3
100
AcDbLine
 10
27.90450070177044
 20
25.41182451402032
 30
0.0
 11
58.40450070177043
 21
25.41182451402032
 31
0.0
  0
LINE
  5
128
330
1F
100
AcDbEntity
  8
0
  6
CONTINUOUS
 62
     3
100
AcDbLine
 10
58.40450070177043
 20
-17.58817548597967
 30
0.0
 11
27.90450070177044
 21
-17.58817548597967
 31
0.0
  0
LINE
  5
129
330
1F
100
AcDbEntity
  8
0
  6
CONTINUOUS
 62
     3
100
AcDbLine
 10
9.904500701770427
 20
9.91182451402031
 30
0.0
 11
9.904500701770427
 21
-2.08817548597969
 31
0.0
  0
LINE
  5
12A
330
1F
100
AcDbEntity
  8
0
  6
CONTINUOUS
 62
     3
100
AcDbLine
 10
4.904500701770427
 20
6.91182451402031
 30
0.0
 11
-7.095499298229573
 21
6.91182451402031
 31
0.0
  0
LINE
  5
12B
330
1F
100
AcDbEntity
  8
0
  6
CONTINUOUS
 62
     3
100
AcDbLine
 10
-7.095499298229573
 20
6.91182451402031
 30
0.0
 11
-7.095499298229573
 21
0.4118245140203101
 31
0.0
  0
LINE
  5
12C
330
1F
100
AcDbEntity
  8
0
  6
CONTINUOUS
 62
     3
100
AcDbLine
 10
4.904500701770427
 20
7.91182451402031
 30
0.0
 11
4.904500701770427
 21
6.91182451402031
 31
0.0
  0
LINE
  5
12D
330
1F
100
AcDbEntity
  8
0
  6
CONTINUOUS
 62
     3
100
AcDbLine
 10
-7.095499298229573
 20
0.4118245140203101
 30
0.0
 11
-6.595499298229573
 21
-0.0881754859796899
 31
0.0
  0
LINE
  5
12E
330
1F
100
AcDbEntity
  8
0
  6
CONTINUOUS
 62
     3
100
AcDbLine
 10
-6.595499298229573
 20
-0.0881754859796899
 30
0.0
 11
-6.595499298229573
 21
6.91182451402031
 31
0.0
  0
LINE
  5
12F
330
1F
100
AcDbEntity
  8
0
  6
CONTINUOUS
 62
     3
100
AcDbLine
 10
7.904500701770427
 20
7.91182451402031
 30
0.0
 11
7.904500701770427
 21
-0.0881754859796899
 31
0.0
  0
CIRCLE
  5
130
330
1F
100
AcDbEntity
  8
0
  6
CONTINUOUS
 62
     3
100
AcDbCircle
 10
-68.59549929822954
 20
3.911824514020317
 30
0.0
 40
4.0
  0
LINE
  5
131
330
1F
100
AcDbEntity
  8
0
  6
CONTINUOUS
 62
     3
100
AcDbLine
 10
-71.24125060929423
 20
6.911824514020317
 30
0.0
 11
-65.94974798716505
 21
6.911824514020317
 31
0.0
  0
LINE
  5
132
330
1F
100
AcDbEntity
  8
0
  6
CONTINUOUS
 62
     3
100
AcDbLine
 10
20.3045007017712
 20
-4.588175485979718
 30
0.0
 11
10.39577449855178
 21
-4.415218026746587
 31
0.0
  0
LINE
  5
133
330
1F
100
AcDbEntity
  8
0
  6
CONTINUOUS
 62
     3
100
AcDbLine
 10
20.3045007017712
 20
12.41182451402034
 30
0.0
 11
10.39577449855178
 21
12.23886705478722
 31
0.0
  0
ARC
  5
134
330
1F
100
AcDbEntity
  8
0
  6
CONTINUOUS
 62
     3
100
AcDbCircle
 10
10.40450070177043
 20
11.73894320720902
 30
0.0
 40
0.5
100
AcDbArc
 50
91.00000000000014
 51
180.0
  0
ARC
  5
135
330
1F
100
AcDbEntity
  8
0
  6
CONTINUOUS
 62
     3
100
AcDbCircle
 10
10.40450070177043
 20
-3.915294179168392
 30
0.0
 40
0.5
100
AcDbArc
 50
180.0
 51
268.9999999999998
  0
ARC
  5
136
330
1F
100
AcDbEntity
  8
0
  6
CONTINUOUS
 62
     3
100
AcDbCircle
 10
-68.59549929822954
 20
3.911824514020317
 30
0.0
 40
6.0
100
AcDbArc
 50
140.357550830682
 51
219.642449169318
  0
LINE
  5
137
330
1F
100
AcDbEntity
  8
0
  6
CONTINUOUS
 62
     3
100
AcDbLine
 10
22.30450070177045
 20
12.41182451402028
 30
0.0
 11
22.30450070177045
 21
-4.588175485979718
 31
0.0
  0
LINE
  5
138
330
1F
100
AcDbEntity
  8
0
  6
CONTINUOUS
 62
     3
100
AcDbLine
 10
7.904500701770427
 20
7.91182451402031
 30
0.0
 11
4.904500701770427
 21
7.91182451402031
 31
0.0
  0
LINE
  5
139
330
1F
100
AcDbEntity
  8
0
  6
CONTINUOUS
 62
     3
100
AcDbLine
 10
7.904500701770427
 20
-0.0881754859796899
 30
0.0
 11
-6.595499298229573
 21
-0.0881754859796899
 31
0.0
  0
LINE
  5
13A
330
1F
100
AcDbEntity
  8
0
  6
CONTINUOUS
 62
     3
100
AcDbLine
 10
9.704500701770417
 20
-2.288175485979679
 30
0.0
 11
9.704500701770417
 21
3.911824514020317
 31
0.0
  0
LINE
  5
13B
330
1F
100
AcDbEntity
  8
0
  6
CONTINUOUS
 62
     3
100
AcDbLine
 10
9.904500701770427
 20
-2.488175485979696
 30
0.0
 11
9.704500701770417
 21
-2.288175485979679
 31
0.0
  0
LINE
  5
13C
330
1F
100
AcDbEntity
  8
0
  6
CONTINUOUS
 62
     3
100
AcDbLine
 10
9.704500701770417
 20
10.11182451402031
 30
0.0
 11
9.704500701770417
 21
3.911824514020317
 31
0.0
  0
LINE
  5
13D
330
1F
100
AcDbEntity
  8
0
  6
CONTINUOUS
 62
     3
100
AcDbLine
 10
9.904500701770427
 20
10.31182451402033
 30
0.0
 11
9.704500701770417
 21
10.11182451402031
 31
0.0
  0
LINE
  5
13E
330
1F
100
AcDbEntity
  8
0
  6
CONTINUOUS
 62
     3
100
AcDbLine
 10
8.704500701770417
 20
-2.088175485979683
 30
0.0
 11
8.704500701770424
 21
9.911824514020317
 31
0.0
  0
LINE
  5
13F
330
1F
100
AcDbEntity
  8
0
  6
CONTINUOUS
 62
     3
100
AcDbLine
 10
9.204500701770417
 20
-2.088175485979683
 30
0.0
 11
8.704500701770417
 21
-2.088175485979683
 31
0.0
  0
LINE
  5
140
330
1F
100
AcDbEntity
  8
0
  6
CONTINUOUS
 62
     3
100
AcDbLine
 10
9.204500701770424
 20
9.911824514020317
 30
0.0
 11
8.704500701770424
 21
9.911824514020317
 31
0.0
  0
LINE
  5
141
330
1F
100
AcDbEntity
  8
0
  6
CONTINUOUS
 62
     3
100
AcDbLine
 10
9.704500701770417
 20
-2.088175485979683
 30
0.0
 11
9.704500701770417
 21
9.911824514020317
 31
0.0
  0
LINE
  5
142
330
1F
100
AcDbEntity
  8
0
  6
CONTINUOUS
 62
     3
100
AcDbLine
 10
9.204500701770417
 20
-2.088175485979683
 30
0.0
 11
9.704500701770417
 21
-2.088175485979683
 31
0.0
  0
LINE
  5
143
330
1F
100
AcDbEntity
  8
0
  6
CONTINUOUS
 62
     3
100
AcDbLine
 10
9.204500701770417
 20
9.911824514020317
 30
0.0
 11
9.704500701770417
 21
9.911824514020317
 31
0.0
  0
LINE
  5
144
330
1F
100
AcDbEntity
  8
0
  6
CONTINUOUS
 62
     3
100
AcDbLine
 10
7.904500701770427
 20
10.91182451402031
 30
0.0
 11
8.704500701770424
 21
10.91182451402031
 31
0.0
  0
LINE
  5
145
330
1F
100
AcDbEntity
  8
0
  6
CONTINUOUS
 62
     3
100
AcDbLine
 10
7.904500701770427
 20
-3.08817548597969
 30
0.0
 11
8.704500701770424
 21
-3.08817548597969
 31
0.0
  0
LINE
  5
146
330
1F
100
AcDbEntity
  8
0
  6
CONTINUOUS
 62
     3
100
AcDbLine
 10
7.904500701770427
 20
-3.08817548597969
 30
0.0
 11
7.904500701770427
 21
10.91182451402031
 31
0.0
  0
LINE
  5
147
330
1F
100
AcDbEntity
  8
0
  6
CONTINUOUS
 62
     3
100
AcDbLine
 10
8.704500701770424
 20
10.91182451402031
 30
0.0
 11
8.704500701770424
 21
-3.08817548597969
 31
0.0
  0
LINE
  5
148
330
1F
100
AcDbEntity
  8
LAYER0001
  6
CONTINUOUS
 62
     3
100
AcDbLine
 10
9.904500701770427
 20
-3.915294179168392
 30
0.0
 11
9.904500701770427
 21
11.73894320720902
 31
0.0
  0
LINE
  5
149
330
1F
100
AcDbEntity
  8
LAYER0001
  6
CONTINUOUS
 62
     3
100
AcDbLine
 10
22.30450070177042
 20
-17.0881754859797
 30
0.0
 11
22.30450070177043
 21
-4.588175485979718
 31
0.0
  0
LINE
  5
14A
330
1F
100
AcDbEntity
  8
LAYER0001
  6
CONTINUOUS
 62
     3
100
AcDbLine
 10
22.30450070177045
 20
12.41182451402028
 30
0.0
 11
22.30450070177045
 21
24.91182451402031
 31
0.0
  0
LINE
  5
14B
330
1F
100
AcDbEntity
  8
LAYER0001
  6
CONTINUOUS
 62
     3
100
AcDbLine
 10
27.90450070177044
 20
-17.5881754859797
 30
0.0
 11
27.90450070177044
 21
25.41182451402031
 31
0.0
  0
LINE
  5
14C
330
1F
100
AcDbEntity
  8
LAYER0001
  6
CONTINUOUS
 62
     3
100
AcDbLine
 10
20.30450070176959
 20
12.41182451402028
 30
0.0
 11
22.30450070177045
 21
12.41182451402028
 31
0.0
  0
LINE
  5
14D
330
1F
100
AcDbEntity
  8
LAYER0001
  6
CONTINUOUS
 62
     3
100
AcDbLine
 10
20.3045007017712
 20
-4.588175485979718
 30
0.0
 11
22.30450070177043
 21
-4.588175485979718
 31
0.0
  0
LINE
  5
14E
330
1F
100
AcDbEntity
  8
LAYER0001
  6
CONTINUOUS
 62
     3
100
AcDbLine
 10
27.90450070177044
 20
25.41182451402031
 30
0.0
 11
22.80450070177045
 21
25.41182451402031
 31
0.0
  0
LINE
  5
14F
330
1F
100
AcDbEntity
  8
LAYER0001
  6
CONTINUOUS
 62
     3
100
AcDbLine
 10
27.90450070177044
 20
-17.5881754859797
 30
0.0
 11
22.80450070177042
 21
-17.5881754859797
 31
0.0
  0
ARC
  5
150
330
1F
100
AcDbEntity
  8
LAYER0001
  6
CONTINUOUS
 62
     3
100
AcDbCircle
 10
22.80450070177045
 20
24.91182451402031
 30
0.0
 40
0.5
100
AcDbArc
 50
90.0
 51
180.0
  0
ARC
  5
151
330
1F
100
AcDbEntity
  8
LAYER0001
  6
CONTINUOUS
 62
     3
100
AcDbCircle
 10
22.80450070177042
 20
-17.0881754859797
 30
0.0
 40
0.5
100
AcDbArc
 50
180.0
 51
270.0
  0
LINE
  5
152
330
1F
100
AcDbEntity
  8
LAYER0001
  6
CONTINUOUS
 62
     3
100
AcDbLine
 10
-85.59549929822957
 20
-17.58817548597969
 30
0.0
 11
-51.59549929822956
 21
-17.5881754859797
 31
0.0
  0
ARC
  5
153
330
1F
100
AcDbEntity
  8
LAYER0001
  6
CONTINUOUS
 62
     3
100
AcDbCircle
 10
-85.59549929822957
 20
-13.08817548597968
 30
0.0
 40
4.5
100
AcDbArc
 50
180.0
 51
270.0
  0
LINE
  5
154
330
1F
100
AcDbEntity
  8
LAYER0001
  6
CONTINUOUS
 62
     3
100
AcDbLine
 10
-90.09549929822954
 20
20.91182451402031
 30
0.0
 11
-90.09549929822957
 21
-13.08817548597968
 31
0.0
  0
CIRCLE
  5
155
330
1F
100
AcDbEntity
  8
LAYER0001
  6
CONTINUOUS
 62
     3
100
AcDbCircle
 10
-85.59549929822957
 20
-13.08817548597968
 30
0.0
 40
2.25
  0
CIRCLE
  5
156
330
1F
100
AcDbEntity
  8
LAYER0001
  6
CONTINUOUS
 62
     3
100
AcDbCircle
 10
-51.59549929822956
 20
-13.08817548597969
 30
0.0
 40
2.25
  0
CIRCLE
  5
157
330
1F
100
AcDbEntity
  8
LAYER0001
  6
CONTINUOUS
 62
     3
100
AcDbCircle
 10
-85.59549929822954
 20
20.91182451402032
 30
0.0
 40
2.25
  0
ARC
  5
158
330
1F
100
AcDbEntity
  8
LAYER0001
  6
CONTINUOUS
 62
     3
100
AcDbCircle
 10
-51.59549929822956
 20
-13.08817548597969
 30
0.0
 40
4.5
100
AcDbArc
 50
270.0
 51
360.0
  0
LINE
  5
159
330
1F
100
AcDbEntity
  8
LAYER0001
  6
CONTINUOUS
 62
     3
100
AcDbLine
 10
-47.09549929822957
 20
-13.08817548597969
 30
0.0
 11
-47.09549929822956
 21
20.91182451402031
 31
0.0
  0
ARC
  5
15A
330
1F
100
AcDbEntity
  8
LAYER0001
  6
CONTINUOUS
 62
     3
100
AcDbCircle
 10
-51.59549929822956
 20
20.91182451402031
 30
0.0
 40
4.5
100
AcDbArc
 50
360.0
 51
450.0
  0
LINE
  5
15B
330
1F
100
AcDbEntity
  8
LAYER0001
  6
CONTINUOUS
 62
     3
100
AcDbLine
 10
-51.59549929822956
 20
25.41182451402031
 30
0.0
 11
-85.59549929822954
 21
25.41182451402031
 31
0.0
  0
ARC
  5
15C
330
1F
100
AcDbEntity
  8
LAYER0001
  6
CONTINUOUS
 62
     3
100
AcDbCircle
 10
-85.59549929822954
 20
20.91182451402031
 30
0.0
 40
4.5
100
AcDbArc
 50
89.99999999999999
 51
180.0
  0
CIRCLE
  5
15D
330
1F
100
AcDbEntity
  8
LAYER0001
  6
CONTINUOUS
 62
     3
100
AcDbCircle
 10
-68.59549929822954
 20
3.91182451402031
 30
0.0
 40
8.5
  0
ARC
  5
15E
330
1F
100
AcDbEntity
  8
LAYER0001
  6
CONTINUOUS
 62
     3
100
AcDbCircle
 10
-79.59549929822957
 20
-14.58817548597968
 30
0.0
 40
3.0
100
AcDbArc
 50
360.0
 51
540.0
  0
ARC
  5
15F
330
1F
100
AcDbEntity
  8
LAYER0001
  6
CONTINUOUS
 62
     3
100
AcDbCircle
 10
-57.59549929822956
 20
22.41182451402032
 30
0.0
 40
3.0
100
AcDbArc
 50
180.0
 51
360.0
  0
LINE
  5
160
330
1F
100
AcDbEntity
  8
LAYER0001
  6
CONTINUOUS
 62
     3
100
AcDbLine
 10
-54.59549929822956
 20
22.41182451402037
 30
0.0
 11
-54.59549929822956
 21
25.41182451402031
 31
0.0
  0
LINE
  5
161
330
1F
100
AcDbEntity
  8
LAYER0001
  6
CONTINUOUS
 62
     3
100
AcDbLine
 10
-60.59549929822956
 20
22.41182451402037
 30
0.0
 11
-60.59549929822956
 21
25.41182451402031
 31
0.0
  0
LINE
  5
162
330
1F
100
AcDbEntity
  8
LAYER0001
  6
CONTINUOUS
 62
     3
100
AcDbLine
 10
-76.59549929822957
 20
-14.58817548597968
 30
0.0
 11
-76.59549929822957
 21
-17.58817548597969
 31
0.0
  0
LINE
  5
163
330
1F
100
AcDbEntity
  8
LAYER0001
  6
CONTINUOUS
 62
     3
100
AcDbLine
 10
-82.59549929822957
 20
-14.58817548597968
 30
0.0
 11
-82.59549929822957
 21
-17.58817548597969
 31
0.0
  0
CIRCLE
  5
164
330
1F
100
AcDbEntity
  8
LAYER0001
  6
CONTINUOUS
 62
     3
100
AcDbCircle
 10
-68.59549929822954
 20
3.91182451402031
 30
0.0
 40
17.0
  0
CIRCLE
  5
165
330
1F
100
AcDbEntity
  8
LAYER0001
  6
CONTINUOUS
 62
     3
100
AcDbCircle
 10
-51.59549929822956
 20
20.91182451402031
 30
0.0
 40
2.25
  0
LINE
  5
166
330
1F
100
AcDbEntity
  8
0
  6
CENTER
 62
     9
100
AcDbLine
 10
-82.34549929822954
 20
20.91182451402032
 30
0.0
 11
-88.84549929822954
 21
20.91182451402032
 31
0.0
  0
LINE
  5
167
330
1F
100
AcDbEntity
  8
0
  6
CENTER
 62
     9
100
AcDbLine
 10
-85.59549929822954
 20
24.16182451402032
 30
0.0
 11
-85.59549929822954
 21
17.66182451402032
 31
0.0
  0
LINE
  5
168
330
1F
100
AcDbEntity
  8
0
  6
CENTER
 62
     9
100
AcDbLine
 10
-48.34549929822956
 20
20.91182451402031
 30
0.0
 11
-54.84549929822956
 21
20.91182451402031
 31
0.0
  0
LINE
  5
169
330
1F
100
AcDbEntity
  8
0
  6
CENTER
 62
     9
100
AcDbLine
 10
-51.59549929822956
 20
24.16182451402031
 30
0.0
 11
-51.59549929822956
 21
17.66182451402031
 31
0.0
  0
LINE
  5
16A
330
1F
100
AcDbEntity
  8
0
  6
CENTER
 62
     9
100
AcDbLine
 10
-88.84549929822957
 20
-13.0881754859797
 30
0.0
 11
-82.34549929822957
 21
-13.0881754859797
 31
0.0
  0
LINE
  5
16B
330
1F
100
AcDbEntity
  8
0
  6
CENTER
 62
     9
100
AcDbLine
 10
-85.59549929822957
 20
-16.3381754859797
 30
0.0
 11
-85.59549929822957
 21
-9.838175485979704
 31
0.0
  0
LINE
  5
16C
330
1F
100
AcDbEntity
  8
0
  6
CENTER
 62
     9
100
AcDbLine
 10
-54.84549929822957
 20
-13.0881754859797
 30
0.0
 11
-48.34549929822957
 21
-13.0881754859797
 31
0.0
  0
LINE
  5
16D
330
1F
100
AcDbEntity
  8
0
  6
CENTER
 62
     9
100
AcDbLine
 10
-51.59549929822957
 20
-16.3381754859797
 30
0.0
 11
-51.59549929822957
 21
-9.838175485979704
 31
0.0
  0
LINE
  5
16E
330
1F
100
AcDbEntity
  8
0
  6
CENTER
 62
     9
100
AcDbLine
 10
-53.59549929822956
 20
22.41182451402032
 30
0.0
 11
-61.59549929822956
 21
22.41182451402032
 31
0.0
  0
LINE
  5
16F
330
1F
100
AcDbEntity
  8
0
  6
CENTER
 62
     9
100
AcDbLine
 10
-57.59549929822956
 20
26.41182451402032
 30
0.0
 11
-57.59549929822956
 21
18.41182451402032
 31
0.0
  0
LINE
  5
170
330
1F
100
AcDbEntity
  8
0
  6
CENTER
 62
     9
100
AcDbLine
 10
-83.59549929822957
 20
-14.58817548597968
 30
0.0
 11
-75.59549929822957
 21
-14.58817548597968
 31
0.0
  0
LINE
  5
171
330
1F
100
AcDbEntity
  8
0
  6
CENTER
 62
     9
100
AcDbLine
 10
-79.59549929822957
 20
-18.58817548597968
 30
0.0
 11
-79.59549929822957
 21
-10.58817548597968
 31
0.0
  0
LINE
  5
172
330
1F
100
AcDbEntity
  8
0
  6
CENTER
 62
     9
100
AcDbLine
 10
-45.09441198011292
 20
3.91182451402031
 30
0.0
 11
-92.09658661634616
 21
3.91182451402031
 31
0.0
  0
LINE
  5
173
330
1F
100
AcDbEntity
  8
0
  6
CENTER
 62
     9
100
AcDbLine
 10
-68.59549929822954
 20
27.41291183213693
 30
0.0
 11
-68.59549929822954
 21
-19.58926280409631
 31
0.0
  0
INSERT
  5
174
330
1F
100
AcDbEntity
  8
0
  6
CONTINUOUS
100
AcDbBlockReference
  2
DC_GROUP_1
 10
0.0
 20
0.0
 30
0.0
  0
INSERT
  5
175
330
1F
100
AcDbEntity
  8
0
  6
CONTINUOUS
100
AcDbBlockReference
  2
DC_GROUP_2
 10
0.0
 20
0.0
 30
0.0
  0
INSERT
  5
176
330
1F
100
AcDbEntity
  8
0
  6
CONTINUOUS
100
AcDbBlockReference
  2
DC_GROUP_3
 10
0.0
 20
0.0
 30
0.0
  0
INSERT
  5
177
330
1F
100
AcDbEntity
  8
0
  6
CONTINUOUS
100
AcDbBlockReference
  2
DA_IMAGEDIMGROUP_1
 10
0.0
 20
0.0
 30
0.0
  0
INSERT
  5
178
330
1F
100
AcDbEntity
  8
0
  6
CONTINUOUS
100
AcDbBlockReference
  2
DA_IMAGEDIMGROUP_2
 10
0.0
 20
0.0
 30
0.0
  0
INSERT
  5
179
330
1F
100
AcDbEntity
  8
0
  6
CONTINUOUS
100
AcDbBlockReference
  2
DA_IMAGEDIMGROUP_3
 10
0.0
 20
0.0
 30
0.0
  0
INSERT
  5
17A
330
1F
100
AcDbEntity
  8
0
  6
CONTINUOUS
100
AcDbBlockReference
  2
DA_IMAGEDIMGROUP_4
 10
0.0
 20
0.0
 30
0.0
  0
INSERT
  5
17B
330
1F
100
AcDbEntity
  8
0
  6
CONTINUOUS
100
AcDbBlockReference
  2
DA_IMAGEDIMGROUP_5
 10
0.0
 20
0.0
 30
0.0
  0
INSERT
  5
17C
330
1F
100
AcDbEntity
  8
0
  6
CONTINUOUS
100
AcDbBlockReference
  2
DA_IMAGEDIMGROUP_6
 10
0.0
 20
0.0
 30
0.0
  0
INSERT
  5
17D
330
1F
100
AcDbEntity
  8
0
  6
CONTINUOUS
100
AcDbBlockReference
  2
DC_GROUP_4
 10
0.0
 20
0.0
 30
0.0
  0
INSERT
  5
17E
330
1F
100
AcDbEntity
  8
0
  6
CONTINUOUS
100
AcDbBlockReference
  2
DA_IMAGEDIMGROUP_7
 10
0.0
 20
0.0
 30
0.0
  0
INSERT
  5
17F
330
1F
100
AcDbEntity
  8
0
  6
CONTINUOUS
100
AcDbBlockReference
  2
DA_IMAGEDIMGROUP_8
 10
0.0
 20
0.0
 30
0.0
  0
INSERT
  5
180
330
1F
100
AcDbEntity
  8
0
  6
CONTINUOUS
100
AcDbBlockReference
  2
DA_IMAGEDIMGROUP_9
 10
0.0
 20
0.0
 30
0.0
  0
INSERT
  5
181
330
1F
100
AcDbEntity
  8
0
  6
CONTINUOUS
100
AcDbBlockReference
  2
DA_IMAGEDIMGROUP_10
 10
0.0
 20
0.0
 30
0.0
  0
INSERT
  5
182
330
1F
100
AcDbEntity
  8
0
  6
CONTINUOUS
100
AcDbBlockReference
  2
DA_IMAGEDIMGROUP_11
 10
0.0
 20
0.0
 30
0.0
  0
INSERT
  5
183
330
1F
100
AcDbEntity
  8
0
  6
CONTINUOUS
100
AcDbBlockReference
  2
DA_IMAGEDIMGROUP_12
 10
0.0
 20
0.0
 30
0.0
  0
INSERT
  5
184
330
1F
100
AcDbEntity
  8
0
  6
CONTINUOUS
100
AcDbBlockReference
  2
DA_IMAGEDIMGROUP_13
 10
0.0
 20
0.0
 30
0.0
  0
TEXT
  5
185
330
1F
100
AcDbEntity
  8
0
 62
     7
100
AcDbText
 10
46.35450070177044
 20
-31.08817548597969
 30
0.0
 40
4.0
  1
（PINION　POSITION）
 41
0.7727272727272726
  7
FDASTYLE0
 72
     5
 11
100.7545007017704
 21
-31.08817548597969
 31
0.0
100
AcDbText
  0
TEXT
  5
186
330
1F
100
AcDbEntity
  8
0
 62
     7
100
AcDbText
 10
-33.69549929822958
 20
-31.08817548597967
 30
0.0
 40
4.0
  1
（SCOPE OF TOLERANCE）
 41
0.7843137254901962
  7
FDASTYLE0
 72
     5
 11
30.30450070177042
 21
-31.08817548597967
 31
0.0
100
AcDbText
  0
VIEWPORT
  5
48
330
1B
100
AcDbEntity
 67
     1
  8
0
100
AcDbViewport
 10
-7.146609298229549
 20
-10.09945634094169
 30
0.0
 40
587.69334
 41
225.0742090384717
 68
     1
 69
     1
1001
ACAD
1000
MVIEW
1002
{
1070
    16
1010
0.0
1020
0.0
1030
0.0
1010
0.0
1020
0.0
1030
1.0
1040
0.0
1040
225.0742090384717
1040
-7.146609298229549
1040
-10.09945634094169
1040
50.0
1040
0.0
1040
0.0
1070
     0
1070
   100
1070
     0
1070
     1
1070
     0
1070
     0
1070
     0
1070
     0
1040
0.0
1040
0.0
1040
0.0
1040
0.5
1040
0.5
1040
0.0
1040
0.0
1070
     0
1002
{
1002
}
1002
}
  0
ENDSEC
  0
SECTION
  2
OBJECTS
  0
DICTIONARY
  5
C
330
0
100
AcDbDictionary
  3
ACAD_GROUP
350
D
  3
ACAD_LAYOUT
350
1A
  3
ACAD_MLINESTYLE
350
17
  3
ACAD_PLOTSETTINGS
350
19
  3
ACDBHEADERROUNDTRIPXREC
350
187
  0
DICTIONARY
  5
D
102
{ACAD_REACTORS
330
C
102
}
330
C
100
AcDbDictionary
  0
DICTIONARY
  5
1A
102
{ACAD_REACTORS
330
C
102
}
330
C
100
AcDbDictionary
  0
DICTIONARY
  5
17
102
{ACAD_REACTORS
330
C
102
}
330
C
100
AcDbDictionary
  3
STANDARD
350
18
  0
DICTIONARY
  5
19
102
{ACAD_REACTORS
330
C
102
}
330
C
100
AcDbDictionary
  0
DICTIONARY
  5
187
102
{ACAD_REACTORS
330
C
102
}
330
C
100
AcDbDictionary
  3
CEPSNTYPE
350
190
  3
DIMSTYLEDATA
350
1A6
  3
FINGERPRINTGUID
350
191
  3
HYPERLINKBASE
350
18A
  3
INSUNITS
350
18F
  3
LAYOUTDICT
350
18C
  3
LWETCUNION
350
18E
  3
PLOTSETDICT
350
18D
  3
PSVPSCALE
350
193
  3
PUCSBASE
350
196
  3
PUCSORGBACK
350
19C
  3
PUCSORGBOTTOM
350
198
  3
PUCSORGFRONT
350
19B
  3
PUCSORGLEFT
350
199
  3
PUCSORGRIGHT
350
19A
  3
PUCSORGTOP
350
197
  3
PUCSORTHOREF
350
194
  3
PUCSORTHOVIEW
350
195
  3
STYLESHEET
350
18B
  3
TSTACKALIGN
350
188
  3
TSTACKSIZE
350
189
  3
UCSBASE
350
19F
  3
UCSORGBACK
350
1A5
  3
UCSORGBOTTOM
350
1A1
  3
UCSORGFRONT
350
1A4
  3
UCSORGLEFT
350
1A2
  3
UCSORGRIGHT
350
1A3
  3
UCSORGTOP
350
1A0
  3
UCSORTHOREF
350
19D
  3
UCSORTHOVIEW
350
19E
  3
VERSIONGUID
350
192
  0
MLINESTYLE
  5
18
102
{ACAD_REACTORS
330
17
102
}
330
17
100
AcDbMlineStyle
  2
Standard
 70
     0
  3

 62
   256
 51
90.0
 52
90.0
 71
     2
 49
0.5
 62
   256
  6
BYLAYER
 49
-0.5
 62
   256
  6
BYLAYER
  0
XRECORD
  5
190
102
{ACAD_REACTORS
330
187
102
}
330
187
100
AcDbXrecord
 90
        0
  0
XRECORD
  5
1A6
102
{ACAD_REACTORS
330
187
102
}
330
187
100
AcDbXrecord
1000
DSTYLE
1002
{
1070
   171
 70
     2
1070
   143
 40
25.4
1070
   274
 70
     2
1070
   141
 40
0.09
1070
   271
 70
     4
1070
    43
 40
0.38
1070
    44
 40
0.18
1070
   278
 70
    46
1070
    42
 40
0.0625
1070
   147
 40
0.09
1070
    77
 70
     3
1070
   272
 70
     4
1070
    73
 70
     1
1070
   172
 70
     0
1070
    74
 70
     1
1070
   283
 70
     1
1070
   340
340
11
1070
   140
 40
0.18
1070
   284
 70
     0
1070
    78
 70
     0
1002
}
  0
XRECORD
  5
191
102
{ACAD_REACTORS
330
187
102
}
330
187
100
AcDbXrecord
  1
{B845149E-B4E6-4B8C-999F-534CE74F09FD}
  0
XRECORD
  5
18A
102
{ACAD_REACTORS
330
187
102
}
330
187
100
AcDbXrecord
  1

  0
XRECORD
  5
18F
102
{ACAD_REACTORS
330
187
102
}
330
187
100
AcDbXrecord
 90
        4
  0
XRECORD
  5
18C
102
{ACAD_REACTORS
330
187
102
}
330
187
100
AcDbXrecord
340
1A
  0
XRECORD
  5
18E
102
{ACAD_REACTORS
330
187
102
}
330
187
100
AcDbXrecord
 90
    10781
  0
XRECORD
  5
18D
102
{ACAD_REACTORS
330
187
102
}
330
187
100
AcDbXrecord
340
19
  0
XRECORD
  5
193
102
{ACAD_REACTORS
330
187
102
}
330
187
100
AcDbXrecord
 40
0.0
  0
XRECORD
  5
196
102
{ACAD_REACTORS
330
187
102
}
330
187
100
AcDbXrecord
340
0
  0
XRECORD
  5
19C
102
{ACAD_REACTORS
330
187
102
}
330
187
100
AcDbXrecord
 10
0.0
 20
0.0
 30
0.0
  0
XRECORD
  5
198
102
{ACAD_REACTORS
330
187
102
}
330
187
100
AcDbXrecord
 10
0.0
 20
0.0
 30
0.0
  0
XRECORD
  5
19B
102
{ACAD_REACTORS
330
187
102
}
330
187
100
AcDbXrecord
 10
0.0
 20
0.0
 30
0.0
  0
XRECORD
  5
199
102
{ACAD_REACTORS
330
187
102
}
330
187
100
AcDbXrecord
 10
0.0
 20
0.0
 30
0.0
  0
XRECORD
  5
19A
102
{ACAD_REACTORS
330
187
102
}
330
187
100
AcDbXrecord
 10
0.0
 20
0.0
 30
0.0
  0
XRECORD
  5
197
102
{ACAD_REACTORS
330
187
102
}
330
187
100
AcDbXrecord
 10
0.0
 20
0.0
 30
0.0
  0
XRECORD
  5
194
102
{ACAD_REACTORS
330
187
102
}
330
187
100
AcDbXrecord
340
0
  0
XRECORD
  5
195
102
{ACAD_REACTORS
330
187
102
}
330
187
100
AcDbXrecord
 70
     0
  0
XRECORD
  5
18B
102
{ACAD_REACTORS
330
187
102
}
330
187
100
AcDbXrecord
  1

  0
XRECORD
  5
188
102
{ACAD_REACTORS
330
187
102
}
330
187
100
AcDbXrecord
 90
        1
  0
XRECORD
  5
189
102
{ACAD_REACTORS
330
187
102
}
330
187
100
AcDbXrecord
 90
       70
  0
XRECORD
  5
19F
102
{ACAD_REACTORS
330
187
102
}
330
187
100
AcDbXrecord
340
0
  0
XRECORD
  5
1A5
102
{ACAD_REACTORS
330
187
102
}
330
187
100
AcDbXrecord
 10
0.0
 20
0.0
 30
0.0
  0
XRECORD
  5
1A1
102
{ACAD_REACTORS
330
187
102
}
330
187
100
AcDbXrecord
 10
0.0
 20
0.0
 30
0.0
  0
XRECORD
  5
1A4
102
{ACAD_REACTORS
330
187
102
}
330
187
100
AcDbXrecord
 10
0.0
 20
0.0
 30
0.0
  0
XRECORD
  5
1A2
102
{ACAD_REACTORS
330
187
102
}
330
187
100
AcDbXrecord
 10
0.0
 20
0.0
 30
0.0
  0
XRECORD
  5
1A3
102
{ACAD_REACTORS
330
187
102
}
330
187
100
AcDbXrecord
 10
0.0
 20
0.0
 30
0.0
  0
XRECORD
  5
1A0
102
{ACAD_REACTORS
330
187
102
}
330
187
100
AcDbXrecord
 10
0.0
 20
0.0
 30
0.0
  0
XRECORD
  5
19D
102
{ACAD_REACTORS
330
187
102
}
330
187
100
AcDbXrecord
340
0
  0
XRECORD
  5
19E
102
{ACAD_REACTORS
330
187
102
}
330
187
100
AcDbXrecord
 70
     0
  0
XRECORD
  5
192
102
{ACAD_REACTORS
330
187
102
}
330
187
100
AcDbXrecord
  1
{FAEB1C32-E019-11D5-929B-00C0DF256EC4}
  0
ENDSEC
  0
EOF
